>
 >
Ellinia Theme

Ellinia Theme Guitar Tabs

Misc Soundtrack - Ellinia Theme chords, tabs, tablatures, lyrics

Guitar lessons | Add/correct | Request | Top 50 tabs Artists:  A B C D E F G H I J K L M N O P Q R S T U V W X Y Z 0-9

Ellinia Theme Guitar Tabs – Misc Soundtrack

CD, Sheet music, Poster

Do you like Ellinia Theme? Share with your friends now
Tabs
There were several parts that were a bit dodgy and I just couldn't figure out the 
correct note to it but I did my best. This is my first tab so be nice :)

(______) = Single note

[repeat each note x2]
e||-1-------------------------------1---------------------------------|
B||---1-3-------------1-3-4-1-3-4-----3-4---1---------1-3---1-4-3-----|
G||-------3-2-3-0-2-3-------------2-------3---3-3-2-3-----3-------2---|
D||-------------------------------------------------------------------|
A||-------------------------------------------------------------------|
E||-------------------------------------------------------------------|

[repeat each note x2]
e||-------------------------------------------------------------------|
B||------------------------1-3-4-1-----------------(3)----------------|
G||-0-2-3---0-2-3-3--0-2-3---------2-0-2-3---0-2-3----3-3-3-3-3-3-3-3-|
D||-------3--------------------------------3--------------------------|
A||-------------------------------------------------------------------|
E||-------------------------------------------------------------------|

                                            [repeat x2]
e||-1-------------------------------1-|   |-------------------------------1-|
B||---1-3-------------1-3-4-1-3-4-----|   |-3-4---1---------1-3---1-4-3-4---|
G||-------3-2-3-0-2-3-------------2---|   |-----3---3-3-2-3-----3-----------|
D||-----------------------------------|   |---------------------------------|
A||-----------------------------------|   |---------------------------------|
E||-----------------------------------|   |---------------------------------|

e||---------------------------------------------------------------------------|
B||-3-4---1---------------------------------------1-3-4-1------------------3--|
G||-----3---3-3-2-3--2-0-2--0-2-3---0-2-3-3--0-2-3---------2-0-2-3---0-2-3--3-|
D||-------------------------------3--------------------------------3----------|
A||---------------------------------------------------------------------------|
E||---------------------------------------------------------------------------|

[repeat each note x2]                  [repeat note + sequence x2]
e||---------------------------------1-||-------------------------------1-|
B||---1-3-------------1-3-4-1-3-4-----||-3-4---1---------1-3---1-4-3-4---|
G||-------3-2-3-0-2-3-------------2---||-----3---3-3-2-3-----3-----------|
D||-3---------------------------------||---------------------------------|
A||-----------------------------------||---------------------------------|
E||-----------------------------------||---------------------------------|

[repeat each note x2]
e||----------------------------------------------------------------------|
B||-3-4---1------------------------------------------1-3-4-1-------------|
G||-----3---3-3-2-(3--2-0-2)--0-2-3---0-2-3-3--0-2-3---------2-0-2-3---0-|
D||---------------------------------3--------------------------------3---|
A||----------------------------------------------------------------------|
E||----------------------------------------------------------------------|

e||-------------------------------------------------------------------|
B||-----3-3/6-4-3-4-3-4--6------------------------1-3-4-1-------------|
G||-2-3--------------------0-2-3---0-2-3-3--0-2-3---------2-0-2-3---0-|
D||------------------------------3--------------------------------3---|
A||-------------------------------------------------------------------|
E||-------------------------------------------------------------------|




e||--------------------------------------------------------------------|
B||-----3--------------------------------------------------------------|
G||-2-3---3-3-3-3-3-3-3-3----------------------------------------------|
D||-------------------------1--------3---0---------------0-1---0-1---3-|
A||-------------------------3-3-0-1----3---1-0-1---0-1-3-----3-----0---|
E||----------------------------------------------3---------------------|

e||--------------------------------------------------------------------|
B||--------------------------------------------------------------------|
G||--------------------------------------------------------------------|
D||-0-1---------------0-----1-0---------------------------0-1----------|
A||-----1-3-1-1-0-1-3---1-3-----0---0-1-----0-1-1---0-1-3-----3-0---0--|
E||-------------------------------3-----1-3-------3---------------3----|

e||-----------------------|
B||-----------------------|
G||-----------------------|
D||-----------3-----------|
A||-1-----0-1---1-1-1-1-1-|
E||---1-3-----------------|





Comments


Popular Misc Soundtrack tabs & chords
Genetic Emancipation Theme Bass Tabs
A Chorus Line - One Chords
Bare A Pop Opera - Bare Chords
Big Rock Candy Mountain Theme Chords
Charmed Theme Chords
Game Of Thrones - You Win Or You Die Chords
Donnie Darko - Mad World Tabs
Harry Potter And The Half Blood Prince - When Ginny Kissed Harry 1 Tabs
Maplestory Ellinia Theme Tabs
Mary Poppins Tabs


Song lyrics



↑ Back to top | Tablatures and chords are parodies/interpretations of the original songs. You may use it for private study, scholarship, research or language learning purposes only
© 2014 AZChords.com Contact us | Privacy policy | DMCA | Add/correct tabs | Request tabs | Top 50 tabs