» » »

Egoist - Departures Bass tabs (ver.1)

Artists:  A B C D E F G H I J K L M N O P Q R S T U V W X Y Z # 

Egoist - Departures Bass tabs (ver.1)

Misc Soundtrack
Rating:
0/5 (0 votes)

Hard to play? Try these video lessons and learn fast.
                

(00:54) ChorusI
|-------------------------|--------------------------------------|
|-------------------------|--------------------------------------|
|-----2---5-------2-6-7---|-----2------2--2---5---------------2--|
|-3-2---5-----3-2-------2-|-3-23-2--232----5-7-5--4-3-2-1-0--3-2-|


(01:27)
|------------|
|------------|
|------------|
|-3--2--1--5-|


(01:34) VerseII
|------------|----------------------|
|------------|-------------7--------|
|-5~--53-2-7-|-10~--107--5--75------|
|------------|------------------3-2-|


(02:03) Chorus II
|----------------------|---------------------|------------------------|----------------|
|---------5------------|------------------9--|---------97-------------|----------------|
|-----2----52----5--5--|-----2-6-7---2---7-9-|-----2-----97-----5--5--|-------------2--|
|-3-23-2-------57-5--5-|-3-2-------23-2------|-3-23-2------7--57-5--5-|-4-3-2-1-0--3-2-|


(02:30) Bridge
|------------------------|-------------------|-------------------|-----------|
|--5p4----------3--7p6---|-----------5h75----|-----98-8-----76-6-|-----------|
|-----5---5--3h5-5----7--|---5------5--------|----9--9-----7--7--|-----------|
|-3----33--2-----------7-|-57--0123------2-5-|-7-7------5-5------|-123-135-7-|


(03:10)
|------------------------|
|------------------15----|
|-----4---------/15--15\-|
|-5-4---1-2--1-----------|


(03:17) Chorus III
|--------------------------------------|------------------|
|-----------------------------------9--|-----76-----------|
|-----4--5-4--4---------------9---/9-9-|----7---7-5-432---|
|-5-45-4-------7-0-6-5-4-3-2/9-9-7-----|-5-5------------6-|


(03:37)
|-------------------------------------------------------------------|
|--------10h12p10------------------------6-------------76---4-------|
|---10h12--------1110--7----------2-------65-432------7--7--------5-|
|-5---------------------72-0234-23-35--54--------6-5/7-----2--0-----|


| /  slide up
| \  slide down
| h  hammer-on
| p  pull-off


Please rate and comment!
Suggestions are welcome.
            
Hard to play? Try these video lessons and learn fast. | Correct




comments powered by Disqus
↑ Back to top | Tablatures and chords are parodies/interpretations of the original songs. You may use it for private study, scholarship, research or language learning purposes only