» » »

Egoist - All Alone With You Bass tabs (ver.1)

Artists:  A B C D E F G H I J K L M N O P Q R S T U V W X Y Z # 

Egoist - All Alone With You Bass tabs (ver.1)

Misc Soundtrack
Rating:
0/5 (0 votes)

Hard to play? Try these video lessons and learn fast.
                

(01:07) ChorusI
|---------------------|---------------------|-------------------------------|-------------|
|---------------------|---------------------|-------------------------------|-------------|
|-----------2222-4457-|-------/77-2233-4457-|----------3--4444-/1416-121416-|-------------|
|-5555-0000-----------|-5555-0--------------|-5555-0-44-4-------------------|-5(8x)-7(8x)-|


(02:40) ChorusII
|---------------------|---------------------|-------------------------------|--------------------|
|---------------------|---------------------|-------------------------------|--------------------|
|-----------2222-4457-|-------/77-2233-4457-|----------3--4444-/1416-121416-|------------/14(6x)-|
|-5555-0000-----------|-5555-0--------------|-5555-0-44-4-------------------|-5(8x)-77777--------|


(03:08) Bridge
|------------------------|--------------------------------|----------------------------------|
|------------------------|--------------------------------|----------------------------------|
|-4444--33-3--2222--11-1-|------/14(x3)-12(x3)-11(x3)-999-|-2(8x)-/14(x3)-141312-------------|
|---------4--------3--2--|-5(8x)--------------------------|---------------------141312-10--7-|


(03:27) Instrumental
|---------------------|-------------------------------|--------------------------|
|---------------------|-------------------------------|--------------------------|
|-----------2222-4457-|-----------2/1215-/1214-121314-|------0-2222-333-0354--57-|
|-5555-0000-----------|-5555-0000---------------------|-5555---------------------|

|------------------------------------------------------------------------------------|
|---------------------------------------------------------------12h1412---14h1614-13-|
|----/121212--101212-1414-1515-1212-14(5x)-1097---------791012---------14------------|
|-555------------------------------------------109--7910-----------------------------|


(4:20)
|--------------------------|
|--------------------------|
|-57------141414--1097-----|
|----55-7/------------1097-|


(04:27) ChorusII
|---------------------|-----------------------|---------------------|--------------------|
|---------------------|-----------------------|---------------------|--------------------|
|-----------3333-5568-|-------/88-33-44-55-68-|--------4--555555-68-|------------/15(6x)-|
|-6666-1111-----------|-6666-1----------------|-6666-55-5-----------|-6(8x)-88888--------|


(04:54) Ad lib
|---------------------|---------------------------|
|---------------------|---------------------------|
|-----------3333-5568-|------8(6x)-3344-1717-1819-|
|-6666-1111-----------|-6666----------------------|

|------------------------------|-------------------------|
|------------------------------|-------------------------|
|----13131212-1512-16----55-68-|-------5-----------------|
|-66/----------------16\-------|-6(6x)--6-8888--8-4-3-1~-|


| /  slide up
| \  slide down
| h  hammer-on


Please rate and comment!
Suggestions are welcome.
            
Hard to play? Try these video lessons and learn fast. | Correct




comments powered by Disqus
↑ Back to top | Tablatures and chords are parodies/interpretations of the original songs. You may use it for private study, scholarship, research or language learning purposes only