>
 >
Dreamz - Vaarthinngal

Dreamz - Vaarthinngal Guitar Tabs

Misc Soundtrack - Dreamz - Vaarthinngal chords, tabs, tablatures, lyrics

Guitar lessons | Add/correct | Request | Top 50 tabs Artists:  A B C D E F G H I J K L M N O P Q R S T U V W X Y Z 0-9

Dreamz - Vaarthinngal Guitar Tabs – Misc Soundtrack

CD, Sheet music, Poster

Do you like Dreamz - Vaarthinngal? Share with your friends now
Tabs
-                              Vaarthingal

By Sanjeev George and Thomas George


Notation for tab
h  :  hammer on
p  :  pull off
/  :   slide up
\  :   slide down
v :   vibrato
b :   bend
r  :   release
.  :   play and mute with fretting hand


Verse

Dm
Ooo ooo oo ooo
   Dm                       
varthinkal thellalle 
   F
varaveena kudamalle
  G                           Dm
manathe manpeda pennu
                            G                        Dm
ooo ooo ooo .. manathe manpeda pennu
      C                             Dm
padumbol kuyilanu panineer poovithalanu
      C                             Dm
padumbol kuyilanu panineer poovithalanu
  F                           G
mizhi randum mainakalanu
   C                         F
chekeran muthe neramayo
   C                         Dm
chekeran muthe neramayo

Then Dm  C   G   Dm chords for solo

Then Flute Solo 1
This is tabbed for guitar 

e|----------------------------------------------------------|
B|--17b18v-----15b18r-15b18r-15b18r-15b18r---18v18/20------|
G|----------------------------------------------------------|
D|----------------------------------------------------------|
A|----------------------------------------------------------|
E|----------------------------------------------------------|

e|--15b17r-15b17r-15b17r---------------------------|
B|-----------------------15b16r--------------------|
G|-------------------------------17-15-14----------|
D|----------------------------------------17-15v---|
A|-------------------------------------------------|
E|-------------------------------------------------|



Stanza 1

    Dm
manikya kavum chutti 
       F
manimanjin koodum thedi
     G                        Dm
vanathe vanampadi pariva 
   Dm
manikya kavum chutti 
       F
manimanjin koodum thedi
     G                        Dm
vanathe vanampadi pariva
        Am            Dm          G                   C 
muthharam moodan neeyenthe kathu ninnilla
      Am            Dm           G                 C
moovanthi cheppil nin moham chanthaninjilla
       C                       G
veyilarum venal koottil
     G                            F
chirakolum kattin chillamel oh
      G                   Dm
arali poo kadin medayil

Verse again                
varthinkal thellalle    
varaveena kudamalle
manathe manpeda pennu
ooo ooo ooo .. manathe manpeda pennu

Flute solo 2 played with chords Dm   Dm   C   Am

e|--------------------/13----------------------------------------------|
B|------1313/15v----------1313/15v----------1313/15v-----13---------|
G|--14-----------------------------------/14--------------------14v----|
D|---------------------------------------------------------------------| play twice
A|---------------------------------------------------------------------|
E|---------------------------------------------------------------------|


Stanza 2

   Dm                             
kannadi chillil kathum
    F 
shararanthal nalam pole 
   G                                 Dm
minnara tharam minni kankalil
   Am            Dm           G                C
pattonnum padan nee enthe kootu vanilla
  Am            Dm               G              C
panchara chundal ee poovin chendil mutheela
    C                    G
mulayola peeli thoppil
    G                            F
chirakala poonthen thulliyil oh..
    G                             Dm
moodal manjurukum sandhyayil 

Back to verse

This riff is played throughout the song (Listen to it to figure out where)
e|------------------------------------------|
B|------------------------------------------|
G|---7-----5h7-7-----5-5-7-----5h7-7--------|
D|---7-----5h7-7-----5-5-7-----5h7-7--------|
A|-------5-------------------5--------------|
E|------------------------------------------|
                           .                 .                 .





Comments


Popular Misc Soundtrack tabs & chords
Frere Jacques Theme Bass Tabs
Boondock Saints Theme Tabs
Cannibal Holocaust Main Theme Tabs
Cloud Atlas Sextet - Atlas March Tabs
Endless Summer Theme Tabs
Godfather Theme 2 Tabs
Have Fun Go Mad Tabs
Indiana Jones Theme Intro 1 Tabs
King Of The Hill Theme 1 Tabs
Last Of The Mohicans Theme 1 Tabs


Song lyrics



↑ Back to top | Tablatures and chords are parodies/interpretations of the original songs. You may use it for private study, scholarship, research or language learning purposes only
© 2014 AZChords.com Contact us | Privacy policy | DMCA | Add/correct tabs | Request tabs | Top 50 tabs