» » »

Misc Soundtrack, Donnie Darko - Mad World Tabs (ver.1)

Artists:  A B C D E F G H I J K L M N O P Q R S T U V W X Y Z # 

Donnie Darko - Mad World Tabs (ver.1)

Misc Soundtrack Tabs
 Rating:
4/5 (4 votes)
Donnie Darko - Mad World lessons Tabs too difficult? Try these video lessons and learn fast
                Standard Tuning
2/4 time
numbers underneath the bars represent the beat.


Intro
Guitar 1
-------8-------------------------------------------------------------------------|
----9------8----9---------8----------------6-------6-----------------------------|
---------------------10-------8---7--------7-------7-----------------------------|
-----------6------------------6--------8-------8---------------------------------|
----8-----------------8----------------------------------------------------------|
    1  .   2    .     1   .   2   .    1   2   1   2

----------8----------------------------6-----------------------------------------|
----9--------8----9---------8----9------------6--------6-------------------------|
----------------------10----------------------7--------7-------------------------|
-------------6-------------------6---------8-------8-----------------------------|
------8----------------8---------------------------------------------------------|
    . 1   .  2    .    1    .    2     .   1  2    1   2

Verse
Guitar 1
-------6---------6---------4---------4---------4---------4---------3---------3---|
-------5---------5---------5---------5---------3---------3----3---------3--------|
--3---------3---------6---------6---------1---------1----------------------------|
  1    2    1    2    1    2    1    2    1    2    1    2    1    2    1    2

V1.  All around me are familiar faces   Worn out Places      Worn out Faces

Bassline (Verse 2 Only)
------------------------------------------0--------------------------------------|
-------------------------------------------------------------3-------------------|
-------------------------------1----3--------------------------------------------|
--1------------------4-----------------------------------------------------------|


Guitar 1
-------6---------6---------4---------4---------4---------4---------3---------3---|
-------5---------5---------5---------5---------3---------3----3---------3--------|
--3---------3---------6---------6---------1---------1----------------------------|

    Bright and early for the daily races  Going No where      Going No Where

Bassline (Verse 2 Only)
-----------------------------------------1-------------------0-------------------|
-------------------------------1----3--------------------------------------------|
--1------------------4-----------------------------------------------------------|


Guitar 1
-------6---------6---------4---------4---------4---------4---------3---------3---|
-------5---------5---------5---------5---------3---------3----3---------3--------|
--3---------3---------6---------6---------1---------1----------------------------|

 Their tears are filling up their glasses  No expression       No expression

Bassline (Verse 2 Only)
-----------------------------------------1-------------------0-------------------|
-------------------------------1----3--------------------------------------------|
--1------------------4-----------------------------------------------------------|


Guitar 1
-------6---------6---------4---------4---------4---------4----------3------------|
-------5---------5---------5---------5---------3---------3----3------------------|
--3---------3---------6---------6---------1---------1----------------------------|

    Hide my head I wanna drown my sorrow   No Tomorrow          No Tomorrow

Bassline (Verse 2 0nly)
---------------------------------------------------0---------pm------------------|
-----------------------------------------1---------------------------------------|
-------------------------------1----3--------------------------------------------|
--1------------------4-----------------------------------------------------------|


Chorus 1 and 2
Guitar 1
-----------------------------------------------1-----------------1---------------|
-----------6-----------------6-----------------3-----------------3---------------|
-----------5-----------------5--------3-----------------3------------------------|
--3-----------------3------------------------------------------------------------|
  1        2        1        2        1        2        1        2

           And I    Find it kinda     Funny        I find it kinda

Bassline (Chorus 2 Only)
--------------------------------------1------------------------------------------|
--1------------------------------------------------------------------------------|

Guitar 1
-----------------------------------------------1-----------------1---------------|
-----------6-----------------6-----------------3-----------------3---------------|
-----------5-----------------5--------3-----------------3------------------------|
--3-----------------3------------------------------------------------------------|

   sad.       The  dreams in which I'm  dying are the  best I've ever

Bassline (Chorus 2 Only)
-------------------------------------1-------------------------------------------|
--1------------------------------------------------------------------------------|


Guitar 1
-----------------------------------------------1-----------------1---------------|
-----------6-----------------6-----------------3-----------------3---------------|
-----------5-----------------5--------3-----------------3------------------------|
--3-----------------3------------------------------------------------------------|

 had.            I find it hard  to  tell   you    I   find it hard to

Bassline (Chorus 2 Only)
--------------------------------------1------------------------------------------|
--1------------------------------------------------------------------------------|

Guitar 1
-----------------------------------------------1-----------------1---------------|
-----------6-----------------6-----------------3-----------------3---------------|
-----------5-----------------5--------3-----------------3------------------------|
--3-----------------3------------------------------------------------------------|

 take.         When people  run in   circles it's a     very    very

Bassline (Chorus 2 Only)
------------------------------------1---------------------------------------------|
--1-------------------------------------------------------------------------------|

Guitar 1
-------8-------------------------------------------------------------------------|
----9------8----9---------8----------------6-------6-----------------------------|
---------------------10-------8---7--------7-------7-----------------------------|
-----------6------------------6--------8-------8---------------------------------|
----8-----------------8----------------------------------------------------------|
    1  .   2    .     1   .   2   .    1   2   1   2

                     M-a-a-a-d World

Bassline (Chorus 2 Only)
---3-----------------------------------------------------------------------------|
----------------------------------5----------------------------------------------|

Guitar 1
----------8----------------------------6------------------------------------------|
----9--------8----9---------8----9------------6--------6--------------------------|
----------------------10----------------------7--------7--------------------------|
------------6-------------------6---------8-------8-------------------------------|
------8----------------8----------------------------------------------------------|
    . 1   .  2    .    1    .    2     .   1  2    1   2

                        M-a-a-a-d    World

Bassline (Chorus 2 Only)
----3-------------------------------------1--------------------------------------|


Verse 2 (add bassline)

Children waiting for the day they feel good
Happy Birthday
Happy Birthday
And I feel the way that every child should
Sit and listen
Sit and listen
Went to school and I was very nervous
No one knew me
No one knew me
Hello Teacher tell me what's my lesson
Look right through me
Look right through me

Chorus2  X1 (add bassline)
and then
Outro    X1
Guitar 1
-------8-------------------------------------------------------------------------|
----9------8----9---------8----------------6-------6-----------------------------|
---------------------10-------8---7--------7-------7-----------------------------|
-----------6------------------6--------8-------8---------------------------------|
----8-----------------8----------------------------------------------------------|
    1  .   2    .     1   .   2   .    1   2   1   2

              E-n-l-a-r-g-e-n  Your  World

Bassline
----3----------------------------------------------------------------------------|
--------------------------------------5------------------------------------------|

Guitar 1
----9---9---8---8----------------------------------------------------------------|
--------------------10---10---8---7----------------------------------------------|
------------6-----------------6--------8-----------------------------------------|
----8----------------8-----------------------------------------------------------|
    1   .   2   .    1    .   2   .    1

                     M-a-a-a-a-d       World.

Bassline (Chorus 2 Only)
----3-------------------------1---------------------------------------------------|

I've been playing guitar for a year now.
If you like this check out my other tab on the site too.

System of a Down - Roulette (Vers. 14)
            
Submit corrections

comments powered by Disqus
↑ Back to top | Misc Soundtrack Tabs for Donnie Darko - Mad World. Lyrics for acoustic guitar and electric guitar. Tablatures and chords are parodies/interpretations of the original songs. You may use it for private study, scholarship, research or language learning purposes only