» » »

Die Hard 3 Bass tabs (ver.1)

Artists:  A B C D E F G H I J K L M N O P Q R S T U V W X Y Z # 

Die Hard 3 Bass tabs (ver.1)

Misc Soundtrack
Rating:
0/5 (0 votes)

Hard to play? Try these video lessons and learn fast.
                "(Theme)
(Intro)
Standard Tuning: E,A,D,G


Die Hard 3 Main Theme song (the ants go marching)

 G--------------------------------------------------|
 D----------2323------------------------------------|
 A--33-5555------53--3------------------------------|
 E------------------5-------------------------------|1x

 G--------------------------------------------------|
 D----------2323-57-37------------------------------|
 A--33-5555-----------------------------------------|
 E--------------------------------------------------|1x

 G--------------------------------------------------|
 D--35777535-55-333202-22357532---------------------|
 A------------------------------35555-35------------|
 E--------------------------------------------------|1x

 Repeat all over and over again Have Fun !!!
"            
Hard to play? Try these video lessons and learn fast. | Correct




comments powered by Disqus
↑ Back to top | Tablatures and chords are parodies/interpretations of the original songs. You may use it for private study, scholarship, research or language learning purposes only