» » »

Desperado Tabs (ver.2)

Artists:  A B C D E F G H I J K L M N O P Q R S T U V W X Y Z # 

Desperado Tabs (ver.2)

Misc Soundtrack
Rating:
0/5 (0 votes)

Hard to play? Try these video lessons and learn fast.
                (2)
(Theme)
-------------------------------------------------------------------------------
                             Desperado 2 Theme
-------------------------------------------------------------------------------

Play melody line on the first "e" string louder than arpeggios.
No timing is included!

Tuning: Standard

e|-0--2-2h3--2-0----------0-------0------0--2-2h3--2-0----------0-------0----|
B|----------------1-----1---1---1---1-------------------0-----0---0---0---0--|
G|--------------------2-------2-----------------------------0-------0--------|
D|------------------2-------------------------------------2------------------|
A|----------------0----------------------------------------------------------|
E|------------------------------------------------------0--------------------|

e|-0--2-2h3--2-0----------2-------2-----2--2/3----2-0-----------0-------0----|
B|----------------------0---0---0---0-------------------------0---0---0---0--|
G|--------------------2-------2-------2---------------------0-------0--------|
D|------------------1-------------------------------------2------------------|
A|----------------2----------------------------------------------------------|
E|------------------------------------------------------0--------------------|

e|-0--2-2h3--2-0----------0-------0------0--2-2h3--2-0----------0-------0----|
B|----------------1-----1---1---1---1-------------------0-----0---0---0---0--|
G|--------------------2-------2-----------------------------0-------0--------|
D|------------------2-------------------------------------2------------------|
A|----------------0----------------------------------------------------------|
E|------------------------------------------------------0--------------------|

e|-0--2-2h3--2-0----------2-------2-----2--2/3----2-0-----------0-------0----|
B|----------------------0---0---0---0-------------------------0---0---0---0--|
G|--------------------2-------2-------2---------------------0-------0--------|
D|------------------1-------------------------------------2------------------|
A|----------------2----------------------------------------------------------|
E|------------------------------------------------------0--------------------|

e|---0-----0------|
B|-----0-----0----|
G|-0-----0--------|
D|----------------|
A|----------------|
E|----------------|

e|-------------------------0------------------------------------0------------|
B|-1-------1-------1-----1-----1------0--------0--------0-----0-----0--------|
G|-----2-------2-------2-----2---2---------0-------0--------0-----0---0------|
D|---2---2---2---2---2-------------------2---2---2---2----2------------------|
A|-0-------------------------------------------------------------------------|
E|------------------------------------0--------------------------------------|

e|-------------------------2---------------------------0---------------------|
B|-0-------0-------0-----0-----0------0--------0-----0---0-------------------|
G|-----2-------2-------2-----2---2---------0-------0-------------------------|
D|---1---1---1---1---1-------------------2---2---2---------------------------|
A|-2-------------------------------------------------------------------------|
E|------------------------------------0--------------------------------------|

e|-0--2-2h3--2-0--------0--2-2h3--2-0-----0--2-2h3--2-0----------2-----------|
B|----------------1-------------------0=-----------------------0---0---0--0--|
G|-----------------------------------------------------------2-------2-----0=|
D|------------------2=-------------------------------------1-----------------|
A|----------------0--------------------------------------2-------------------|
E|------------------------------------0=----------------------------------0--|

e|-0--2-2h3-3h5-5/7=---------------------------0-----------------------------|
B|---------------------1-------1-------1-----1-----1------0--------0--------0|
G|-------------------------2-------2-------2-----2---2---------0-------0-----|
D|-----------------------2---2---2---2---2-------------------2---2---2---2---|
A|---------------------0-----------------------------------------------------|
E|--------------------------------------------------------0------------------|

e|------0---------------------------2-------2---------------------------0----|
B|----0-----0--------0-------0---------0---0---0---0---0--------0-----0---0--|
G|--0-----0---0----------2-------2-------2-------2-----------0-------0-------|
D|2--------------------1---1---1---1-----------------------2---2---2---------|
A|-------------------2-------------------------------------------------------|
E|-----------------------------------------------------0---------------------|

Slow tempo
e|2h3=----------0-----2h3=-----------0-----2h3=---------2-----3p2=---------0=|
B|------1-----1---1----------0-----0---0--------------0---0--------0-----0---|
G|----------2--------------------0------------------2------------------0-----|
D|--------2--------------------2------------------1------------------2-------|
A|------0---------------------------------------2----------------------------|
E|---------------------------0-------------------------------------0---------|

e|2h3=----------0=----2h3=-----------0-----2h3=---------2-----3p2=---------0=|
B|------1-----1--------------0-----0---0--------------0---0--------0-----0-0=|
G|----------2--------------------0------------------2------------------0---0=|
D|--------2--------------------2------------------1------------------2-----2=|
A|------0---------------------------------------2--------------------------2=|
E|---------------------------0-------------------------------------0-------0=|



************************************

| /   slide up
| \   slide down
| h   hammer-on
| p   pull-off
| =   let ring

************************************
            
Hard to play? Try these video lessons and learn fast. | Correct




comments powered by Disqus
↑ Back to top | Tablatures and chords are parodies/interpretations of the original songs. You may use it for private study, scholarship, research or language learning purposes only