» » »

Misc Soundtrack, Degrassi Tabs (ver.1)

Artists:  A B C D E F G H I J K L M N O P Q R S T U V W X Y Z # 

Degrassi Tabs (ver.1)

Misc Soundtrack Tabs
Rating:
0/5 (0 votes)
Degrassi lessons Tabs too difficult? Try these video lessons and learn fast
                (Theme)
-------------------------------------------------------------------------------
  Degrassi Theme (seasons 4-5) - A few members from Jakalope (apparently)
-------------------------------------------------------------------------------

Tuning: standard
---------------------------------------------


I got tired of wrong or half-assed versions, so here you go

Chords:      F#,       		B,             G#m
	e|---2---|         e|---7---|       e|---4---| 
	B|---2---|         B|---7---|       B|---4---|
	G|---3---|         G|---8---|       G|---4---|
	D|---4---|         D|---9---|       D|---6---|
	A|---4---|         A|---9---|       A|---6---|
	E|---2---|         E|---7---|       E|---4---|
	



Intro:   F#  let ring (you can play the E,A,and D string only) 
e|-------2-------------------------------------------------------------------|
B|-------2-------------------------------------------------------------------|
G|-------3-------------------------------------------------------------------|
D|-------4-------------------------------------------------------------------|
A|-------2-------------------------------------------------------------------|
E|-------2-------------------------------------------------------------------|

Riff thingy:
e-------2-------2-------2---------|
B-----2-------2-------2-------2---|
G---------------------------------|
D-----------4---------------4-----|
A-----------------2---------------|
E-2-------------------------------|


Main chord pregression:

     F#           B          F#          B         (x 2)
e|---2------------7----------2-----------7-------|
B|---2------------7----------2-----------7-------|   
G|---3------------8----------3-----------8-------|
D|---4------------9----------4-----------9-------|
A|---2------------9----------2-----------9-------|
E|---2------------7----------2-----------7-------|

then

     F#          G#m         B           F#
e|---2------------4----------7-----------2-------|
B|---2------------4----------7-----------2-------|
G|---3------------4----------8-----------3-------|
D|---4------------6----------9-----------4-------|
A|---2------------6----------9-----------4-------|
E|---2------------4----------7-----------2-------|

     
     F#          G#m         B           B
e|---2------------4----------7-----------7-------|
B|---2------------4----------7-----------7-------|
G|---3------------4----------8-----------8-------|
D|---4------------6----------9-----------9-------|
A|---2------------6----------9-----------9-------|
E|---2------------4----------7-----------7-------|


 end on  F#  let ring (you can play the E,A,and D string only) 
e|-------2-----------------+2-+2---------------------------------------------|
B|-------2----------------------+2-------------------------------------------|
G|-------3-------------------------------------------------------------------|
D|-------4-------------------------------------------------------------------|
A|-------2-------------------------------------------------------------------|
E|-------2-------------------------------------------------------------------|

enjoy and play along



| /  slide up
| \  slide down
| h  hammer-on
| p  pull-off
| ~  vibrato
| +  harmonic
| x  Mute note
            

comments powered by Disqus
↑ Back to top | Misc Soundtrack Tabs for Degrassi. Lyrics for acoustic guitar and electric guitar. Tablatures and chords are parodies/interpretations of the original songs. You may use it for private study, scholarship, research or language learning purposes only