» » »

Days Of Thunder - Start Your Engines Tabs (ver.1)

Artists:  A B C D E F G H I J K L M N O P Q R S T U V W X Y Z # 

Days Of Thunder - Start Your Engines Tabs (ver.1)

Misc Soundtrack
Rating:
0/5 (0 votes)

Hard to play? Try these video lessons and learn fast.
                Tuning: Standard

Out of 'Days of Thunder'. There are two Versions of the Song.
This one fits for both.

0:04
|-------------------------------------------------------|
|-------------------------------------------------------|
|-------------------------------------------------------|
|--10--10---------10--12b14--10------10--10---------10--|
|-----------12-10----------------12----------12-10------|
|-------------------------------------------------------|

0:40
e|--------------------------------------------------|
B|--------------------------------------------------|
G|--------------------------------------------------|
D|--15--14--12--10----12----------------------------|
A|--------------------------------------------------|
E|--------------------------------------------------|

0:48
e|--------------------------------------------------|
B|--------------------------------------------------|
G|--------------------------------------------------|
D|--10--10--12-13-14--12--10--12--------------------|
A|--------------------------------10b11-------------|
E|--------------------------------------------------|

e|--------------------------------------------------|
B|--------------------------------------------------|
G|--------------------------------------------------|
D|------12-14-15-14----17---------------------------|
A|--10---------------------15-----------------------|
E|--------------------------------------------------|

e|-----------------------------------------------------|
B|-----------------------------------------------------|
G|-----------------------------------------------------|
D|--17--17----15--14--12--10--9--10--------------------|
A|-----------------------------------------------------|
E|-----------------------------------------------------|

1:02
e|--------------------------------------------------|
B|--------------------------------------------------|
G|--4--5-------9--9--10-----12--12--17--------------|
D|--4--5-------x--x---x-----x----x---x--------------|
A|--2--3-------7--7---8-----10--10--15--------------|
E|--------------------------------------------------|

1:35
e|--------------------------------------------------|
B|--------------------------------------------------|
G|--------------------------------------------------|
D|--10---10-10-10-10---10--12-----/14---------------|
A|----------------------------10--------------------|
E|--------------------------------------------------|

e|--------------------------------------------------|
B|--------------------------------------------------|
G|--------------------------------------------------|
D|-------14--15--15--14-----------------------------|
A|---15------------------15--15--14--/17--15--------|
E|--------------------------------------------------|

1:56
e|--------------------------------------------------|
B|--------------------------------------------------|
G|--9--9--10-----12--12--17-----9--9--10------------|
D|--x--x---x-----x----x---x-----x--x---x------------|
A|--7--7---8-----10--10--15-----7--7---8------------|
E|--------------------------------------------------|

2:07
e|------------------------------------------------------------------|
B|---------------17~-----15--17--18--18--17-------------------------|
G|---17~---19~-------------------------------17--17--16--19--17-----|
D|------------------------------------------------------------------|
A|------------------------------------------------------------------|
E|------------------------------------------------------------------|


additional part

3:45
e|--------------------------------------------------|
B|--------------------------------------------------|
G|--11---11-11-11-11---11--13------/15--------------|
D|-----------------------------11-------------------|
A|--------------------------------------------------|
E|--------------------------------------------------|


e|--------------------------------------------------|
B|--------------------------------------------------|
G|-------15--16--16--15-----------------------------|
D|---16------------------16--16--15--/18--16--------|
A|--------------------------------------------------|
E|--------------------------------------------------|
            
Hard to play? Try these video lessons and learn fast. | Correct




comments powered by Disqus
↑ Back to top | Tablatures and chords are parodies/interpretations of the original songs. You may use it for private study, scholarship, research or language learning purposes only