» » »

Crow Tabs (ver.3)

Artists:  A B C D E F G H I J K L M N O P Q R S T U V W X Y Z # 

Crow Tabs (ver.3)

Misc Soundtrack
Rating:
0/5 (0 votes)

Tabs too difficult? Try these video lessons and learn fast.
                (Theme)
The following message contains the more interesting tabs taken from the 
Orchestral Version of The Crow. That is to say:
- Captive Child (guitar solo when Eric Draven is playing quietly on the roofs)
- Inferno (guitar solo when Eric breaks ferociously 
is guitar at the end of the track).
- Tracking the Prey (song  of Eric Draven's band)

		Captive Child 
				composed by Graeme Revell
			(taken from the Original soundtrack of 
				THE CROW )

e----5/7---5----------5----------------5---------5------------------------------
B--------------8-7--------5------7-------5-----------3---5----------------------
G-------------------------------------------------------------------------------
D-------------------------------------------------------------------------------
A-------------------------------------------------------------------------------
E-------------------------------------------------------------------------------

e----5/7---5----------5----------------3---------5------------------------------
B--------------8-7--------5------7-------3---------------5----------------------
G----------------------------------------------------5--------------------------
D-------------------------------------------------------------------------------
A-------------------------------------------------------------------------------
E-------------------------------------------------------------------------------


		Inferno -	composed by Graeme Revell
			(taken from the Original soundtrack of 
				THE CROW )


       Em                        D             C
e----5/7---5----------5----------------3-------3/5------------------------------
B--------------8-7--------5------7-------3-----------5/1---3/5------------------
G-------------------------------------------------------------------------------
D-------------------------------------------------------------------------------
A-------------------------------------------------------------------------------
E-------------------------------------------------------------------------------

      Em              D               C             D                    
e---0-0-3-0---0-5-0---0-7-0---0-8-0---0-7-0---0-5-0---0-3-----------------------
B---------------------------------------------------------0---------------------
G-------------------------------------------------------------------------------
D-------------------------------------------------------------------------------
A-------------------------------------------------------------------------------
E-------------------------------------------------------------------------------

    C     D       E 
e---------------------------------------------------
B---------------------------------------------------
G---5-----5\7-----7\9-------------------------------   repeat once again
D---5-----5\7-----7\9-------------------------------   this power chords
A---3---3-3\5---5-5\7-------------------------------
E---------------------0.0.0.0.0.0.0.0.0.0.0.0.0.0.0-


then carry on with the following 

e---------------------------------------------------------------5.7.5.7.5.7.5.7
B-------------------------------------------3.5.3.5.3.5.3.5.3.5----------------
G----------------------2.4.2.4.2.4.2.4.2.4-------------------------------------
D-2.5.2.5.2.5.2.5.2.5----------------------------------------------------------
A------------------------------------------------------------------------------
E------------------------------------------------------------------------------
    
e-10.12.10.12.10.12.10.12.10.12--12.15.12.15.12.15.12.15.12.15-----------------
B----------------------------------------------------------------0g10----------
G------------------------------------------------------------------------------
D------------------------------------------------------------------------------
A------------------------------------------------------------------------------
E------------------------------------------------------------------------------

end the track by making weird noise loud and smashing ... 
	(that I can't explain better than that)

		Tracking the Prey
		(imagine a joy division song and you'll be in the mood)

Cm
It can't rain all the time
F
The Sky won't fall forever
Bb
And though the night seems long
G
Your tears won't fall forever

  F                               Cm                              G
e-----3---1-------------1------------------------------------------------------
B-1-----------4---3-------1-----3-4--------------------------------------------
G-----------------------------------------5-3-5---------------5---3------------
D---------------------------------------------------------------0-5------5-3-5-
A------------------------------------------------------------------------------
E------------------------------------------------------------------------------
  .       .       .       .       .       .       .       .       .      .

starts song again ...

----------------------------------end------------------------------------------
I warned you ... it is not so complicate as it seems


good luck ... and good trip
            
Tabs too difficult? Try these video lessons and learn fast.




comments powered by Disqus
↑ Back to top | Tablatures and chords are parodies/interpretations of the original songs. You may use it for private study, scholarship, research or language learning purposes only