>
 >
Cowboy Bebop - Forever Broke

Cowboy Bebop - Forever Broke Guitar Tabs

Misc Soundtrack - Cowboy Bebop - Forever Broke chords, tabs, tablatures, lyrics

Guitar lessons | Add/correct | Request | Top 50 tabs Artists:  A B C D E F G H I J K L M N O P Q R S T U V W X Y Z 0-9

Cowboy Bebop - Forever Broke Guitar Tabs – Misc Soundtrack

CD, Sheet music, Poster

Do you like Cowboy Bebop - Forever Broke? Share with your friends now
Tabs
Forever Broke
 Cowboy Bebop
Drop D Tuning
 b= bend        Notes in Parenthesis () are what you
 r= return      bend the note to, or what you start on 
                from a slide; basically, its not a note 
                that you actually play by picking the string.

------------------------------------------------- 
----1-------------------------------------------- 
-s2---------------------------------------------- 
------s7-s3-0---0-2b-2------2b(3)r2b(3)r2-------- 
---------------------0--s5----------------2-0---- 
------------------------s5--------------------0-- 


---------------------------------------- 
---------------------------------------- 
-----------s5--------------------------- 
--0-2b-0-2-s5----0-2b(3)-0-2b(3)-0------ 
---------0-s5--2-------------------2-0-- 
-----------s5--------------------------- 


-------------------------------- 
-------------------------------- 
-------------------------------- 
-2b(3)-(3)-0-2-----2br2b-------- 
-------------0-s5-------2-0----- 
---------------s5------------0-- 


--------0----------------------- 
-6-6----5----------------------- 
------7-5-----7b(9)r7b(9)------- 
--------5-----------------9-7--- 
-----------s5---------------5--- 
-----------s5------------------- 

---------- 
---------- 
---------- 
-0-(2)s3-- 6 (play in sets of 2)
-0-(2)s3-- 
-0-(2)s3-- 

----------0---------------- 
--6b-6b---0---0-3-5b-0----- 
--5b-5b---6------------2--- 
----------7------------0--- 
----------7-5-------------- 
----------7-5-------------- 

--------0----5--------------------------- 
-6b-6b--0----5-------------0------------- 
-5b-5b--6----6b(7)r6b(7)r6-4-2-2s5-2s5-2- 
--------7----7b(8)r7b(8)r7-7-0----------- 
--------7-5------------------------------ 
--------7-5------------------------------ 

----------------0--------------- 
-6b(7)r6b(7)r6--0---0-4b-0------ 
-5b(6)r5b(6)r5--6----------2---- 
----------------7----------0---- 
----------------7-5------------- 
----------------7-5----------0-- 

---------0-------------- 
-6b-6b---0---0-4b------- 
-5b-5b-7-6--------4--2-- 
---------7-------------- 
---------7-5------------ 
---------7-5------------ 

2:05
------- -----------4--------------  
------- -------------4------------  
------- ---------------4---4------  
-0-2s3- -HARMONICS-------4-------- Note: To play this, simply
-0-2s3- -------------------------- put your finger, very lightly, 
-0-2s3- -------------------------- exactly on the 4th fret, and then
	   			   when you pluck the string, gently pull
				   your finger off the fret.

 
2:23
------5-------------- 
-6bp0-5---0-4b-p0----   
-5b---6-----------2--  
------7s5---------0-- 
------7s5------------ 
------7s5------------ 

----------------0-----5b-0---/---------- 
-6b(7)r6b(7)r6--0---0-4b-0---/-----3----
-5b(6)r5b(6)r5--6-----5b---2-/---0------
----------------7----------0-/-4-----0-- 
----------------7-5----------/---------- 
----------------7-5----------/----------

 	
-5b--0-------------/--------- 
-6b--0------3b-----/--------- 
-5b--6--6------4-2-/---------  
-----7--7--------0-/--0-s3-0- 
-----7--7-5--------/---------   
-----7----5--------/--------- 


2:58
-0----0------------/------------  
-5b-3-0---0-0-0----/------3--3--   
-5b---6-----2-2--2-/----0----2-- 
------7-----2----0-/--0------0-- 
------7-5----------/------------ 
--------5----------/------------ 

  Note About Stuff that is past the "/'s"
     These notes are kind of optional because 
     they are played very, very softly in the song.





Comments


Popular Misc Soundtrack tabs & chords
Golden Girls Theme Bass Tabs
3 Peas In A Pod - You And I Chords
A Mighty Wind - Old Joes Place Chords
Buffy The Vampire Slayer - I Wish I Could Stay Chords
Braveheart Theme Intro 1 Tabs
Godfather - Love Theme 1 Tabs
Honor The Pacific Theme Tabs
Mash 4077 Theme Tabs
Moon River Tabs
A Walk To Remember - So What Does It All Mean Ukulele


Song lyrics



↑ Back to top | Tablatures and chords are parodies/interpretations of the original songs. You may use it for private study, scholarship, research or language learning purposes only
© 2014 AZChords.com Contact us | Privacy policy | DMCA | Add/correct tabs | Request tabs | Top 50 tabs