» » »

Cheers Tabs (ver.1)

Artists:  A B C D E F G H I J K L M N O P Q R S T U V W X Y Z # 

Cheers Tabs (ver.1)

Misc Soundtrack
Rating:
0/5 (0 votes)

Hard to play? Try these video lessons and learn fast.
                (Theme)
Lines: 58



Theme from "Cheers" - By Gary Portnoy & Judy Hart Angelo
(c) 1984 by ADDAX Music Co., Inc.
Guitar arrangement by Howard Morgen - from Guitar Player, Oct.- Nov. 1988

Originally in Bb -- tune up 1/2 step to play along
Each space represents 1/8 of a beat


Intro                                    Verse
|----------9|7-7-----|--------|--------||000-0-00|--00--0-|
|10------10-|9-9-----|-------2|0-0-----||----0---|7---9---|
|-9-----9---|9-9-----|2-----2-|1-1-----||----6---|----9---|
|-7---11----|9-9-----|2----2--|2-2-----||----7---|--------|
|-----------|--------|0---4---|0-0-----||0-------|--------|
|-----------|--------|--------|--------||--------|0-------|


|0-05--57|--------|000---0-|----0-0-|0-05--57|--------|
|--------|----9---|----5---|79--7---|--------|----9---|
|----6---|----9---|----6---|-9--7---|----6---|----9---|
|----7---|--------|----7---|--------|----7---|--------|
|0-------|--------|0-------|--------|0-------|--------|
|--------|0-------|--------|0-------|--------|0-------|


|0---777-|------7-9-|---------|9-10-7---|------7-|9-7-9-10-|
|0-2---8-|11-11-----|7------7-|---7-----|7---7---|-------7-|
|0---9---|------7-9-|7----7---|9----7---|7---7---|9-7-9----|
|--------|---11-----|7-11-----|---------|7---7---|---------|
|--------|-9--------|---------|---------|7-------|-------7-|
|3-------|----------|7--------|---------|------7-|0--------|

Chorus
|12-0-0-02|--0-----|--------|0--0--0-|----0-0-|7-------|2-------|
|-0---0--0|---3--2-|3--0----|------0-|----0---|7-5-----|3--0----|
|13---6--0|--------|----2---|1--2----|----6---|0---7--6|----2---|
|---------|--------|0-------|--------|----7---|--------|0-------|
|-0-------|--------|--------|--------|0-------|--------|--------|
|---------|3-------|--------|0--2--4-|--------|--------|--------|


|--0--0--|| 000-----|----2---|000-----|----2---|000-----|--------|
|--------|| ----5---|0---3---|----5--0|----3---|----5---|0---0---|
|-1--2---||.----6-6-|-2--2-2-|----6-6-|--2-----|----6-6-|-2221---|
|--------||.----6---|0-------|----6---|0-------|----6---|0---2---|
|--------|| 4-------|--------|4-------|--------|4-------|--------|
|0--2--4-|| --------|--------|--------|--------|--------|--------|

 _____________________  ________
 1.                     2.
|----------9|7-7----- ||----------9|7-7-----|5-------|--------|--------||
|--------10-|9-9----- ||--------10-|9-9-----|2------2|0-0-----|2-------||
|-------9---|9-9-----.||-------9---|9-9-----|4-----2-|1-1-----|4-------||
|7----11----|7-7-----.||7----11----|7-7-----|-----2--|2-2-----|--------||
|0-0--------|-------- ||0-0--------|--------|0---4---|0-0-----|0-------||
|-----------|-------- ||-----------|--------|--------|------0-|--------||
            
Hard to play? Try these video lessons and learn fast. | Correct




comments powered by Disqus
↑ Back to top | Tablatures and chords are parodies/interpretations of the original songs. You may use it for private study, scholarship, research or language learning purposes only