» » »

Californication - Hanks Bass tabs (ver.1)

Artists:  A B C D E F G H I J K L M N O P Q R S T U V W X Y Z # 

Californication - Hanks Bass tabs (ver.1)

Misc Soundtrack
Rating:
0/5 (0 votes)

Hard to play? Try these video lessons and learn fast.
                (Theme)
-------------------------------------------------------------------------------
			     Hank's Theme from Californication TV series
-------------------------------------------------------------------------------



Tuning: Standard

This is my first tab so go easy on me :). I've searched for tabs of this awesome song, 
but didn't find any so I decided to tab it myself :)

This song is very cool and simple, listen in for timing and rythm.

Variation 1:
G|---------------------------------------------------------------------------|
D|---------------------------------------------------------------------------|
A|-8--8--88----8--8--10-8-10\--5--5--55-0--5--5--5--00-----------------------|
E|----------10---------------------------------------------------------------|

Variation 2:
G|---------------------------------------------------------------------------|
D|-------------------------------------------------13-13-15------------------|
A|-8--888/--15--13----------15--5--555/---15-13------------------------------|
E|-----------------15-13-13---------------------15---------------------------|

Variation 3:
G|---------------------------------------------------------------------------|
D|---------------------------------------------------------------------------|
A|-8-888/---15--13----------15\-5--5--55-0-5--5--5-00------------------------|
E|-----------------15-13-13--------------------------------------------------|

Variation 4:
G|---------------------------------------------------------------------------|
D|--------------------------------------------13-13-15-----------------------|
A|-8--8--88----8--8--10-8-10\-5-555/-15-13-----------------------------------|
E|----------10-----------------------------15--------------------------------|

One of my favourite basslines! I apologize for any mistakes.
Enjoy!

| /  slide up
| \  slide down
| h  hammer-on
| p  pull-off
| ~  vibrato
| +  harmonic
| x  Mute note
===============================================================================
            
Hard to play? Try these video lessons and learn fast. | Correct




comments powered by Disqus
↑ Back to top | Tablatures and chords are parodies/interpretations of the original songs. You may use it for private study, scholarship, research or language learning purposes only