» » »

Misc Soundtrack, Bumer Tabs (ver.1)

Artists:  A B C D E F G H I J K L M N O P Q R S T U V W X Y Z # 

Bumer Tabs (ver.1)

Misc Soundtrack Tabs
 Rating:
4/5 (4 votes)
Bumer lessons Tabs too difficult? Try these video lessons and learn fast
                (Theme)
this is a song from a russian film

|--0-3--3-0--5-3-5-3-5-3-5-3-5-7--|
|---------------------------------|
|---------------------------------|
|---------------------------------|    II
|---------------------------------|   times
|---------------------------------|

|--0-3------------3-0-----------5-3-5-3-5-3-5-3-5-7--------|
|-------0-0--0-0-------1-1--1-1-----0-------0--------0--0--|
|-------0-0--0-0-------0-0--0-0-----0-------0--------0--0--|    II
|-----------------------------------------------5----------|   times
|-----------------3-------------0--------------------------|
|--0-------------------------------------------------------|


|--0------------------------------------------------------|
|---------------3------------0----------------------------|
|--------------------------------------------5------------|    II
|-------00--00-------00--00------0-0-----0-0------00--00--|  times
|-------00--00-------11--11------0-0-----0-0------00--00--|
|--0-3----------3-0----------5-3-5-3-5-3-5-3-5-7----------|

|---------------------------|
|---0--0--0--0--0--0--0--0--|
|--0--0--0--0--0--0--0--0---|
|--2-----------2------------|
|---------------------------|
|---------------------------|

|------------------------------------------------------|
|---0--0--0--0--0--0--0---0---0--0--0--0--0--0--0---0--|
|--0--0--0--0--0--0--0--0----0--0--0--0--0--0--0--0----|    II
|------------------------------------------------------|   times
|--------------3--3-----3-2--0--0-----0----------------|
|--0--0-----0----------------------------3--3-----3-2--|

|-------------------------------------------------------------|
|--0--0-0--0-0--1--1-1--1-------1--1-1--1----1--1-1--1--------|
|--0--0-0--0-0--0--0-0--0-------2--2-2--2----0--0-0--0--------|    II
|-------------------------------2--2-2--2---------------------|   times
|---------------3--3-3--3--3-2-------------0------------------|
|--0--0-0--0-0-------------------------------3--3-3--3--3--2--|

|--0-3--------3-0--------5-3-5-3-5-3-5-3-5-7--------|
|-------0--0-------1--1------0-------0--------0--0--|
|-------0--0-------0--0------0-------0--------0--0--|    II
|----------------------------------------5----------|   times
|-------------3----------0--------------------------|
|--0------------------------------------------------|

|--0-3--3-0--5-3-5-3-5-3-5-3-5-7--|
|---------------------------------|
|---------------------------------|
|---------------------------------|
|---------------------------------|
|--0------------------------------|

|--0-3--3-0--5-3-5-3-5-3-5-3-5-7--|
|---------------------------------|
|---------------------------------|    II
|---------------------------------|   times
|---------------------------------|
|---------------------------------|
            
Submit corrections

comments powered by Disqus
↑ Back to top | Misc Soundtrack Tabs for Bumer. Lyrics for acoustic guitar and electric guitar. Tablatures and chords are parodies/interpretations of the original songs. You may use it for private study, scholarship, research or language learning purposes only