» » »

Buffy The Vampire Slayer Tabs (ver.1)

Artists:  A B C D E F G H I J K L M N O P Q R S T U V W X Y Z # 

Buffy The Vampire Slayer Tabs (ver.1)

Misc Soundtrack
Rating:
0/5 (0 votes)

Hard to play? Try these video lessons and learn fast.
                (Theme)
BUFFY (THE VAMPIRE SLAYER) THEME
----------------------------------



i'm not sure 100% but i heard it like that :-


(Distortion)

e|------------------|------------------|
B|------------------|------------------|
G|------------------|------------------|
D|-------4---5------|------------------|
A|-7-------------5--|------------------|
E|------------------|------------------|

[2 guitars playing]

e|------------------|------------------|------------------|------------------|
B|------------------|------------------|------------------|------------------|G
G|-9-------11---12--|-7----------------|-77---------9--11-|-7------------x\--|T
D|-9-------11---12--|-7----------------|-77---------9--11-|-7----------------|R
A|-7--------9---10--|-5----------------|-55---------7---9-|-5------------x\--|1
E|------------------|------------------|------------------|------------------|
 |                                                                           |
e|------------------|------------------|------------------|------------------|
B|------------------|------------------|------------------|------------------|G
G|------------------|------------------|-4-4-4-4-4-4-4-4--|-7-7-7-7-7-7-7-7--|T
D|-2-2-2-2-2-2-2-2--|-5-5-5-5-5-5-5-5--|-4-4-4-4-4-4-4-4--|-7-7-7-7-7-7-7-7--|R
A|-2-2-2-2-2-2-2-2--|-5-5-5-5-5-5-5-5--|-2-2-2-2-2-2-2-2--|-5-5-5-5-5-5-5-5--|2
E|-0-0-0-0-0-0-0-0--|-3-3-3-3-3-3-3-3--|------------------|------------------|


e|------------------|------------------|------------------|------------------|
B|------------------|------------------|------------------|------------------|G
G|-9999999-1111-12--|-7777777777777777-|-777777777-99--11-|-77777777777------|T
D|-9999999-1111-----|-7777777777777777-|-777777777-99--11-|-77777777777------|R
A|-7777777--9-9-10--|-5555555555555555-|-555555555-77---9-|-55555555555------|1
E|------------------|------------------|------------------|------------------| 
 |                                                                           |   two times
e|------------------|------------------|------------------|------------------| 
B|------------------|------------------|------------------|------------------|G
G|------------------|------------------|-4444444444444444-|-7777777777777777-|T
D|-2222222222222222-|-5555555555555555-|-4444444444444444-|-7777777777777777-|R
A|-2222222222222222-|-5555555555555555-|-2222222222222222-|-5555555555555555-|2
E|-0000000000000000-|-3333333333333333-|------------------|------------------|


e|------------------|------------------|------------------|
B|------------------|------------------|------------------|G
G|------------------|------------------|------------x\----|T
D|-------4---0------|----5\4-----------|-444444444--------|R
A|-7----7---7-------|------------------|------------x\----|1
E|------------------|------------------|------------------|
 |                                                        |
e|------------------|------------------|------------------|
B|------------------|------------------|------------------|G
G|-7----------------|------------------|-4444444444444444-|T
D|-7-[let ring]-----|-7----------------|-4444444444444444-|R
A|-5----------------|-7-[let ring]-----|-2222222222222222-|2
E|------------------|-5----------------|------------------|


e|-7777777-10-10-12-|-7777777-10-10-12-|-5555555-77-10----|
B|------------------|------------------|------------------|G
G|------------------|------------------|------------------|T
D|------------------|------------------|------------------|R
A|------------------|------------------|------------------|1
E|------------------|------------------|------------------|
 |                                                        |
e|------------------|------------------|------------------|
B|------------------|------------------|------------------|G
G|------------------|------------------|-4444444444444444-|T
D|-2222222222222222-|-5555555555555555-|-4444444444444444-|R
A|-2222222222222222-|-5555555555555555-|-2222222222222222-|2
E|-0000000000000000-|-3333333333333333-|------------------|


e|-555555555555555/-|-666666666666666/-|------------------|
B|------------------|------------------|------------------|G
G|------------------|------------------|-9-----9-----9----|T
D|------------------|------------------|-------------9----|R
A|------------------|------------------|-7-----7-----7----|1
E|------------------|------------------|------------------|
 |                                                        |
e|------------------|------------------|------------------|
B|------------------|------------------|------------------|G
G|-7777777777777777-|-8888888888888888-|------------------|T
D|-7777777777777777-|-8888888888888888-|-2-----2-----2----|R
A|-5555555555555555-|-6666666666666666-|-2-----2-----2----|2
E|------------------|------------------|-0-----0-----0----|

                     =================================================
that's all........
enjoy it.
            
Hard to play? Try these video lessons and learn fast. | Correct




comments powered by Disqus
↑ Back to top | Tablatures and chords are parodies/interpretations of the original songs. You may use it for private study, scholarship, research or language learning purposes only