» » »

Buffy The Vampire Slayer Musical Episode - I Got A Theory Tabs (ver.1)

Artists:  A B C D E F G H I J K L M N O P Q R S T U V W X Y Z # 

Buffy The Vampire Slayer Musical Episode - I Got A Theory Tabs (ver.1)

Misc Soundtrack
Rating:
0/5 (0 votes)

Hard to play? Try these video lessons and learn fast.
                Riff 1
|---------------|---------------|---------------|---------------|
|---------------|---------------|---------------|---------------|
|-6-------------|-4-------------|---------------|---------------|
|-7-------------|-5-------------|-4-------------|-----4---5---7-|
|-7-------------|-5-------------|-4---4---2---0-|-----5---5---5-|
|-5-------------|-3-------------|-2-------------|-0-------0-----| 


GILES (Riff 1)
I've got a theory,
That it's a demon, 
A dancing demon-
No, something isn't right there.


WILLOW (Riff 1)
I've got a theory,
Some kid is dreamin'
And we're all stuck inside
His wacky Broadway nightmare.

Riff 2
|---------------|---------------|---------------|---------5-----|
|---------------|---------------|---------5-----|-----5-------5-|
|---------2-----|---------4-----|---------6---7-|-6h7-----------|
|---------4-----|---------5-----|---------7-----|---------------|
|-----4-------4-|-----5-------5-|-----7---------|---------------|
|-2-------------|-3-------------|-5-------------|---------------| 

XANDER (Riff 2)
I've got a theory,
We should work this out.

Riff 3
|---------------|---------------|---------------|---------------|
|---------------|---------------|---------------|---------------|
|---------2-----|---------4-----|---------6-----|-------------8-|
|---------4-----|---------5-----|---------7-----|---------9-----|
|-----4-------4-|-----5-------5-|-----7-------7-|-----9---------|
|-2-------------|-3-------------|-5-------------|-7-------------| 

|--------7------|
|-----7---------|
|-8h9-----------|
|---------------|
|---------------|
|---------------|

XANDER, GILES, ANYA, WILLOW, TARA (riff 3)
It's getting eerie.
What's this cheery singing all about?


XANDER (Riff 1, with pause)
It could be witches,
Some evil witches.
Which is ridiculous,'Cause witches, they were persecuted Wicca good and love the earth 
And women power and I'll be over here.

ANYA (Half of Riff 1)
I've got a theory,
It could be bunnies.



TARA (Riff 1)
I've got a 
theory-

ANYA (Distortion, bar chords in V position and above)
D                   E              B 
Bunnies aren't just cute like everybody supposes!
D             E              B 
They got them hoppy legs and twitchy little noses!
           A 
And what's with all the carrots?
        E                                G
What do they need Such good eyesight for anyway?
D        E                   A
Bunnies! Bunnies! It must be bunnies!

(G chord)
Or maybe midgets?

WILLOW (Riff 2)
I've got a theory,
We should work this fast.

WILLOW & GILES (Riff 3)
Because it clearly
Could get serious before it's passed.

BUFFY (strum, arpeggiate, whatever)
A                 C               G  D/F# Em
I've got a theory, It doesn't matter.
     C        D               G D/F# Em
What can't we face if we're together?
        C        D                 G D/F# 
What's in this place that we can't weather?
Bm                Am
Apocalypse? We've all been there.
Bm           A
The same old trips. Why should we care?

ALL (as previous bit)
What can't we do if we get in it?
We're working through with every minute.
We have to try. We'll pay the price.
It's do or die...

BUFFY
Hey, I've died twice.

ALL
What can't we face if we're together?
What's in this place that we can't weather?
There's nothing we can't face...

ANYA
              A
...except for bunnies.
            
Hard to play? Try these video lessons and learn fast. | Correct




comments powered by Disqus
↑ Back to top | Tablatures and chords are parodies/interpretations of the original songs. You may use it for private study, scholarship, research or language learning purposes only