» » »

Misc Soundtrack, Brothers Tabs (ver.3)

Artists:  A B C D E F G H I J K L M N O P Q R S T U V W X Y Z # 

Brothers Tabs (ver.3)

Misc Soundtrack Tabs
 Rating:
4/5 (4 votes)
Brothers lessons Tabs too difficult? Try these video lessons and learn fast
                (Theme)
Thomas Newman
Brothers (Main Title)

Tuning: Standard


Just a few tips for how to play this more easily:

I find its easier to make the transition between the minor and major chords
finger back for the minor chords. Also, although its personal preference of
course, I like to keep my ring finger on the corresponding fret of the D string,
just to keep the shape of the chords consistent (it makes it easier, trust me).

Hope you enjoy the tab!


0:06-0:25
e|---------------------------------------------------------------------------|
B|--------8----7--------8----7--------8----7-------5---------5----3-------3--|
G|--9/11----------9/11----------9/11----------9/7-------5/7----------5/7-----|
D|---------------------------------------------------------------------------|
A|--7/9---7----5--7/9---7----5--7/9---7----5--7/5--3----3/5--3----2--3/5--2--|
E|---------------------------------------------------------------------------|


0:26-0:38
e|----------------------------------------------------|
B|--------8----7--------7-----------5----3-------5----|
G|--9/11----------9/11---------5/7----------5/7-------|
D|----------------------------------------------------|
A|--7/9---7----5--7/9---5------3/5--3----2--3/5--3----|
E|----------------------------------------------------|


0:39-0:57
e|---------------------------------------------------------------------------|
B|--------8----7--------7-----------5----3-------3----------8----7--------7--|
G|--9/11----------9/11---------5/7----------5/7-------9/11----------9/11-----|
D|---------------------------------------------------------------------------|
A|--7/9---7----5--7/9---5------3/5--3----2--3/5--2----7/9---7----5--7/9---5--|
E|---------------------------------------------------------------------------|


0:58-1:09
(percussion begins)
e|----------------------------------------------------|
B|--------8----7--------8-----------8----7-------5----|
G|--9/11----------9/11--------9/11----------7/5-------|
D|----------------------------------------------------|
A|--7/9---7----5--7/9---7-----7/9---7----5--9/7--3----|
E|----------------------------------------------------|


1:10-1:26                                              (percussion ends)
e|-------------------------------------------------------------------|
B|--------8----7--------8-----------5----3--------8----7--------7----|
G|--9/11----------9/11--------5/7-----------9/11----------9/11-------|
D|-------------------------------------------------------------------|
A|--7/9---7----5--7/9---7-----3/5---3----2--7/9---7----5--7/9---5----|
E|-------------------------------------------------------------------|


1:27-1:38
e|----------------------------------------------------|
B|--------8----7--------8-----------8----7-------5----|
G|--9/11----------9/11--------9/11----------9/7-------|
D|----------------------------------------------------|
A|--7/9---7----5--7/9---7-----7/9---7----5--7/5--3----|
E|----------------------------------------------------|


1:39-1:59
e|----------------------------------------|
B|-------5----3--------8----7--------7----|
G|--5/7----------9/11----------9/11-------|
D|----------------------------------------|
A|--3/5--3----2--7/9---7----5--7/9---5----|
E|----------------------------------------|




it came out in theaters, same key/chords


e|------------------------------------------|
B|--------8--------7--------5--------3------|
G|------------------------------------------|
D|-----9--------7--------5--------4---------|
A|--7--------5--------3--------2------------|
E|------------------------------------------|

e|------------------------------------------|
B|--------8--------7--------5---------------|
G|------------------------------------------|
D|-----9--------7--------5------------------|
A|--7--------5--------3---------------------|
E|------------------------------------------|

e|------------------------------------------|
B|--------8--------7--------5--------3------|
G|------------------------------------------|
D|-----9--------7--------5--------4---------|
A|--7--------5--------3--------2------------|
E|------------------------------------------|

e|------------------------------------------|
B|--------8--------7--5---------------------|
G|------------------------------------------|
D|-----9--------7---------------------------|
A|--7--------5------------------------------|
E|------------------------------------------|
            
Submit corrections

comments powered by Disqus
↑ Back to top | Misc Soundtrack Tabs for Brothers. Lyrics for acoustic guitar and electric guitar. Tablatures and chords are parodies/interpretations of the original songs. You may use it for private study, scholarship, research or language learning purposes only