» » »

Misc Soundtrack, Boondock Saints Tabs (ver.1)

Artists:  A B C D E F G H I J K L M N O P Q R S T U V W X Y Z # 

Boondock Saints Tabs (ver.1)

Misc Soundtrack Tabs
 Rating:
4/5 (4 votes)
Boondock Saints lessons Tabs too difficult? Try these video lessons and learn fast
1
                (Theme)
Intro (main piece)
e|-10---12-14--10---10------------10----------10-----------------------------|
B|----------------12--12-10----10---10-----10---10---------------------------|
G|--------------------------12--------12-11----------------------------------|
D|---------------------------------------------------------------------------|
A|---------------------------------------------------------------------------|
E|---------------------------------------------------------------------------|

e|-10--12-14-10---10--------10-12-14-10-17-14-12-10--------------------------|
B|--------------12--12-10----------------------------------------------------|
G|-----------------------12--------------------------------------------------|
D|---------------------------------------------------------------------------|
A|---------------------------------------------------------------------------|
E|---------------------------------------------------------------------------|
Second Part
e|--------------------------10---14-14-12-10----10---------------------------|
B|--------------------10-12---10-------------12----12-10----10---------------|
G|------9-11-12-11-12------------------------------------12------------------|
D|---------------------------------------------------------------------------|
A|---------------------------------------------------------------------------|
E|---------------------------------------------------------------------------|

e|----------------------10-14--------------10-------------|
B|----------------10-12-----------------10----12-10----10-|
G|--9-11-12-11-12----------------11--12-------------12----|
D|----------------------------12--------------------------|
A|--------------------------------------------------------|
E|--------------------------------------------------------|

e|----10---10-14--12-10--10--------------------------------------------------|
B|-10---12-------------12--12-10----10-(12)----------------------------------|
G|-------------------------------12------------------------------------------|
D|---------------------------------------------------------------------------|
A|---------------------------------------------------------------------------|
E|---------------------------------------------------------------------------|
(main piece)
e|-10---12-14--10---10------------10----------10-----------------------------|
B|----------------12--12-10----10---10-----10---10---------------------------|
G|--------------------------12--------12-11----------------------------------|
D|---------------------------------------------------------------------------|
A|---------------------------------------------------------------------------|
E|---------------------------------------------------------------------------|

e|-10--12-14-10---10--------10-12-14-10-17-14-12-10--------------------------|
B|--------------12--12-10----------------------------------------------------|
G|-----------------------12--------------------------------------------------|
D|---------------------------------------------------------------------------|
A|---------------------------------------------------------------------------|
E|---------------------------------------------------------------------------|   
Third Part
e|----10-9-----------------------------10-9----------------------------------|
B|-10------12-12-10--10-10-12----10-10------12-12-10----10-10-12----10-------|
G|-----------------11---------11---------------------11----------11----------|
D|---------------------------------------------------------------------------|
A|---------------------------------------------------------------------------|
E|---------------------------------------------------------------------------|

e|-14---12-14-15--17-14--12-14-10-10-9---------------------------------------|
B|------------------------------------12--10-------10-10-12---10-------------|
G|----------------------------------------------11----------11---------------|
D|-------------------------------------------12------------------------------|
A|---------------------------------------------------------------------------|
E|---------------------------------------------------------------------------|


e|-10-9----------------------------------------------------------------------|
B|------12-10-------10-10-12----10-------------------------------------------|
G|---------------11----------11---11-12--------------------------------------|
D|------------12-----------------------12------------------------------------|
A|---------------------------------------------------------------------------|
E|---------------------------------------------------------------------------|
            
Submit corrections

comments powered by Disqus
↑ Back to top | Misc Soundtrack Tabs for Boondock Saints. Lyrics for acoustic guitar and electric guitar. 1 Tablatures and chords are parodies/interpretations of the original songs. You may use it for private study, scholarship, research or language learning purposes only