» » »

Bonanza Tabs (ver.2)

Artists:  A B C D E F G H I J K L M N O P Q R S T U V W X Y Z # 

Bonanza Tabs (ver.2)

Misc Soundtrack
Rating:
0/5 (0 votes)

Tabs too difficult? Try these video lessons and learn fast.
                (Theme)
If you come across these, this is what you have to play.

2x11 = 1 1-1-1 1-1-1 1-1-1-1-| (dum dumdumdum dumdumdum dumdumdumdum)
2x5 = 1 1-1-1-1--------------| (dum dumdumdumdum)

Just listen to the song and you'll get it!

Alright, part 1.
           1A                                   1B
E------------------------------|---------------------------------|
B------------------------------|---------------------------------|
G------------------------------|--------1------------------------|
D--------1---------------------|------2--------------------1-2---|
A------2-------------------1-2-|-2x11------2x5-2x5-2-2-2-4-------|
E-2x11-----2x5-2x5-2-2-2-4-----|---------------------------------|


Part 2
E---------------------------------------------------|
B---------------------------------------------------|
G---------------------------------------------------|
D-1-4------------1--------1-4-------------1---------|
A-----2---2----2---2-4--------2---2-----2---2-1-----|
E-------4---0-2-----------------4---0-2-------------|


Then play Part 1A.


Part 3:
           3A                              3B
E------------------------------|--------4-----------------------|
B--------4---------------------|------5-------------------------|
G------4-------------------3-4-|-4x11-----4x5-4x5-4-4-4-6-4-5---|
D-4x11-----4x5-4x5-4-4-4-6-----|--------------------------------|
A------------------------------|--------------------------------|
E------------------------------|--------------------------------|

Part 4:
E---------------------------------------------------------|
B-4-7-------------4------------4-7-------------4----------|
G-----4---4-----4---4-6------------4---4-----4---4-6------|
D-------6-----4----------------------6-----4--------------|
A-----------7----------------------------7----------------|
E---------------------------------------------------------|


And end with part 3A.
            
Tabs too difficult? Try these video lessons and learn fast.


comments powered by Disqus
↑ Back to top | Tablatures and chords are parodies/interpretations of the original songs. You may use it for private study, scholarship, research or language learning purposes only