» » »

Bonanza Tabs (ver.1)

Artists:  A B C D E F G H I J K L M N O P Q R S T U V W X Y Z # 

Bonanza Tabs (ver.1)

Misc Soundtrack
Rating:
0/5 (0 votes)

Hard to play? Try these video lessons and learn fast.
                (Theme)
 |---------------------------------------------------------|
 |                       Bonanza Theme                     |
 |---------------------------------------------------------|  

 
 Tuning: Standard

 
 Listen to the song to get the right rhythm.



  A                            A
e|----------------------------|----------------------------|
B|----------------------------|-----2----------------------|
G|----------------------------|2---------------------------|
D|2--2-2-2--2-2-2--2-2-2--2-2-|----------------------------|
A|----------------------------|----------------------------|
E|----------------------------|----------------------------|


  E7                           E7           A
e|----------------------------|----------------------------|
B|----------------------------|----------------------------|
G|----------------------------|----------1--2--------------|
D|2--2-2-2---2-2-2--2-2-2-----|2--2-2-4--------------------|
A|----------------------------|----------------------------|
E|----------------------------|----------------------------|

  D                            D
e|----------------------------|----2-----------------------|
B|----------------------------|3---------------------------|
G|2--2-2-2--2-2-2--2-2-2--2-2-|----------------------------|
D|----------------------------|----------------------------|
A|----------------------------|----------------------------|
E|----------------------------|----------------------------|


  A7                           A7            D
e|----------------------------|----------------------------|
B|----------------------------|-----------2--3-------------|
G|2--2-2-2--2-2-2--2-2-2------|2---2-2-4-------------------|
D|----------------------------|----------------------------|
A|----------------------------|----------------------------|
E|----------------------------|----------------------------|


  A           D          A           E7
e|----------------------|---------------------|
B|---5------------------|------2--------------|
G|6-------------2-------|---2-----2--4--------|
D|------7----4-----0----|2--------------------|
A|----------------------|---------------------|
E|----------------------|---------------------|



  A                            A
e|----------------------------|----------------------------|
B|----------------------------|-----2----------------------|
G|----------------------------|2---------------------------|
D|2--2-2-2--2-2-2--2-2-2--2-2-|----------------------------|
A|----------------------------|----------------------------|
E|----------------------------|----------------------------|


  E7                           E7           A
e|----------------------------|----------------------------|
B|----------------------------|----------------------------|
G|----------------------------|----------1--2--------------|
D|2--2-2-2---2-2-2--2-2-2-----|2--2-2-4--------------------|
A|----------------------------|----------------------------|


That's all
            
Hard to play? Try these video lessons and learn fast. | Correct




comments powered by Disqus
↑ Back to top | Tablatures and chords are parodies/interpretations of the original songs. You may use it for private study, scholarship, research or language learning purposes only