» » »

Big Beat Repeat Tabs (ver.1)

Artists:  A B C D E F G H I J K L M N O P Q R S T U V W X Y Z # 

Big Beat Repeat Tabs (ver.1)

Misc Soundtrack
Rating:
0/5 (0 votes)

Hard to play? Try these video lessons and learn fast.
                Big Beat Repeat - Josh Powell

A bonus song from the soundtrack to Harry Potter And The Half Blood Prince
This plays during the end of the Quidditch match when Ron and Lavender kiss

EADGBe

Main Riff
e||-------------------------------------------------------------||
B||-------------------------------------------------------------||
G||-------------------------------------------------------------||
D||-------------------------------------------------------------||   x2
A||----------------------------------------5-6-7----------------||
E||----0000-3333-555-7----0000-3333-555-7-----------------------||


   Riff 1
e||-------------------------------------------------------------||
B||-------------------------------------------------------------||
G||-------------------------------------------------------------||
D||-------------------------------------------------------------||   x4
A||--------------------5-6-7-----------------------5-6-7--------||
E||---0000-3333-555-7-------------0000-3333-555-7---------------||

   Riff 2
e||--00----33----55----77---------------------------------------||
B||--00----33----55----77---------------------------------------||
G||--11----44----66----88---------------------------------------||
D||--22----55----77----99---------------------------------------||   x7
A||--22----55----77----99---------------------------------------||
E||--00----33----55----77---------------------------------------||


e||--0000--3333--5-5--7777--------------------------------------||
B||--0000--3333--5-5--7777--------------------------------------||
G||--1111--4444--6-6--8888--------------------------------------||
D||--2222--5555--7-7--9999--------------------------------------||
A||--2222--5555--7-7--9999--------------------------------------||
E||--0000--3333--5-5--7777--------------------------------------||

Repeat Riff 1 and 2 throughout the rest of the song, along occasionally with the other riffs


I picked this up by ear so if there's any bits that are wrong feel free to make your own 
changes or tell me
            
Hard to play? Try these video lessons and learn fast. | Correct




comments powered by Disqus
↑ Back to top | Tablatures and chords are parodies/interpretations of the original songs. You may use it for private study, scholarship, research or language learning purposes only