» » »

Beverly Hills Cop Tabs (ver.5)

Artists:  A B C D E F G H I J K L M N O P Q R S T U V W X Y Z # 

Beverly Hills Cop Tabs (ver.5)

Misc Soundtrack
Rating:
0/5 (0 votes)

Tabs too difficult? Try these video lessons and learn fast.
                (Theme)
(Intro)
-------------------------------------------------------------------------------
                             beverly hills cop theme - misc television
-------------------------------------------------------------------------------


Tuning:EADGBe

e|----0----3----0--0----5----0--------0----7----0--0----8----7----3----------|
B|--------------------------------3------------------------------------------|
G|---------------------------------------------------------------------------|
D|---------------------------------------------------------------------------|
A|---------------------------------------------------------------------------|
E|---------------------------------------------------------------------------|

e|---0----7----12-----------------------3----0-------------------------------|
B|---------------------0---3---3---0-----------------------------------------|
G|---------------------------------------------------------------------------|
D|---------------------------------------------------------------------------|
A|---------------------------------------------------------------------------|
E|---------------------------------------------------------------------------|



************************************
            
Tabs too difficult? Try these video lessons and learn fast.




comments powered by Disqus
↑ Back to top | Tablatures and chords are parodies/interpretations of the original songs. You may use it for private study, scholarship, research or language learning purposes only