» » »

Batman Forever Tabs (ver.1)

Artists:  A B C D E F G H I J K L M N O P Q R S T U V W X Y Z # 

Batman Forever Tabs (ver.1)

Misc Soundtrack
Rating:
0/5 (0 votes)

Hard to play? Try these video lessons and learn fast.
                (Theme)
|_-_-_-_-_-_-_-_-_-_-_-_-_-_-_-_-_-_-_-_-_-_-_-_-_-_-_-_-_-_-_-_-_-_-_-_|
||ELLIOT GOLDENTHAL - MAIN TITLES & FANFARE (Theme from Batman Forever)||
|_-_-_-_-_-_-_-_-_-_-_-_-_-_-_-_-_-_-_-_-_-_-_-_-_-_-_-_-_-_-_-_-_-_-_-_|




E||--------------------|--------------------|-------------------|
B||--------------------|--------------------|-------------------|
G||--------------------|--------------------|-------------------|
D||--------------------|--------------------|-------------------|
A||--11----------------|--10----------------|-------------------|
E||--------------------|--------------------|--8----------------|

---------------------------|-------------------------|
-----------------------13--|--12---------------------|
-------------------12------|--------13---------------|
--10-----------13----------|--------------13----9----|
---------------------------|-------------------------|
---------------------------|-------------------------|

---------------------------11--|--9--------------------|--9--------------------|
-----------------------13------|-------10--9--8--------|-------10--9--8--------|
-------------------12----------|-----------------------|-----------------------|
--10-----------13--------------|-----------------------|-----------------------|
-------------------------------|-----------------------|-----------------------|
-------------------------------|-----------------------|-----------------------|

----------------------|------------------------|----------------------|
----------------------|------------------------|----------------------|
--13------------------|----------------10--12--|--13------------------|
-------------------9--|--12--------------------|-------------------9--|
----------------------|------------------------|----------------------|
----------------------|------------------------|----------------------|

--------------------|----------------------------|--------------------------|
--------------------|------------------------17--|--16----------------------|
--------------------|--------------------16------|--------17----------------|
--12----------------|--14------------17----------|--------------17----13----|
--------------------|----------------------------|--------------------------|
--------------------|----------------------------|--------------------------|
                            
---------------------------15--|--13----------------------|
-----------------------17------|----------14-13-12--------|
-------------------16----------|--------------------------|
--14-----------17--------------|--------------------------|
-------------------------------|--------------------------|
-------------------------------|--------------------------|
 
---------------------|--16----------------|----------------------|
---------------15----|--------------------|--17--------16--------|
---------------------|--------------------|----------------------|
---------------------|--------------------|----------------------|
---------------------|--------------------|----------------------|
---------------------|--------------------|----------------------|

--------------------------|--------------------|-------------------------|
--15----------------------|--------------------|--------9----12----------|
--------------------------|---------------9----|--10---------------11----|
--------------------------|--------------------|-------------------------|
--------------------------|--------------------|-------------------------|
--------------------------|--------------------|-------------------------|

--13----------------------|---------------13----|--14------------13----|
--------16--15--14--------|---------------------|----------------------|
--------------------------|---------------------|----------------------|
--------------------------|---------------------|----------------------|
--------------------------|---------------------|----------------------|
--------------------------|---------------------|----------------------|
 
--14----------------|--16----------------|--17----------------|
--------------------|--------------------|--------------------|
--------------------|--------------------|--------------------|
--------------------|--------------------|--------------------|
--------------------|--------------------|--------------------|
--------------------|--------------------|--------------------|

--------------------|--------------------||
--------------------|--------------------||
--------------------|--17----------------||
--15----------------|--------------------||
--------------------|--------------------||
--------------------|--------------------||
            
Hard to play? Try these video lessons and learn fast. | Correct




comments powered by Disqus
↑ Back to top | Tablatures and chords are parodies/interpretations of the original songs. You may use it for private study, scholarship, research or language learning purposes only