» » »

Avatar - I See You Tabs (ver.1)

Artists:  A B C D E F G H I J K L M N O P Q R S T U V W X Y Z # 

Avatar - I See You Tabs (ver.1)

Misc Soundtrack
Rating:
0/5 (0 votes)

Hard to play? Try these video lessons and learn fast.
                



E ||----------------|           R||---------------|--5-------------|--9-----10-9----|--7------------||
B ||----------------|           E||-8-------------|--5-------------|--5-------------|---------------||
G ||--------9-------|           P||-------7-------|--------7-------|----------------|--------9------||
D ||-----9----------|           .||----9----------|-----7----------|-----7----------|-----9---------||
A ||--7-------------|           2||-7-------------|--5-------------|----------------|--7------------||
E ||----------------|           x||---------------|----------------|--5-------------|---------------||


|--12----------14---12---|--11----------12---11---|
|------------------------|------------------------|
|------------------------|------------------------|
|--------11--------------|--------9---------------|
|------------------------|------------------------|
|--9---------------------|--7---------------------|


|--9-----5-------|--9-----11------|--12---------|--7-----9----|--10------|--8-------|
|----------------|----------------|--------8----|-------------|----------|--5-------|
|----------------|----------------|-----9-------|-------------|----------|----------|
|-----7-----7----|-----7-----7----|-------------|-------------|----------|----------|
|----------------|----------------|-------------|-------------|----------|----------|
|--5-------------|----------------|--9----------|--3----------|--7-------|--5-------|


|--15------------|--17------------|--9-----10-9----|
|--------17------|----------------|--5-------------|
|-----16----16---|--------14------|----------------|
|--17------------|-----14----11---|-----7----------|
|----------------|--12------------|----------------|
|----------------|----------------|--5-------------|


|--7-------------|--12----------14----12------|--11----------12----11------|
|----------------|----------------------------|----------------------------|
|--------9-------|----------------------------|----------------------------|
|-----9----------|--------11------------------|--------9-------------------|
|--7-------------|----------------------------|----------------------------|
|----------------|--9-------------------------|--7-------------------------|


|--9-----5-------|--9-----11------|--12------------|--14----12------|
|----------------|----------------|--------9-------|----------------|
|----------------|----------------|-----9-----9----|-----11----11---|
|-----7-----7----|-----7-----7----|----------------|----------------|
|----------------|----------------|----------------|----------------|
|--5-------------|----------------|--9-------------|----------------|


|--11------------|--12----11------|--9-------------|----------------|-------|--12---||
|--------0-------|----------------|--------0-------|--9-----7-------|--5----|-------||
|-----11----11---|-----11----11---|-----9-----9----|--9--9--9--9----|-------|-------||
|--9-------------|--9-------------|--7-------------|--7-------------|-------|-------||
|----------------|----------------|----------------|----------------|-------|-------||
|----------------|----------------|----------------|----------------|--0----|-------||


It's my first tab, and probably it's not 100% correct. Leave a comment or message, if 
you can improve/fix something :)
            
Hard to play? Try these video lessons and learn fast. | Correct




comments powered by Disqus
↑ Back to top | Tablatures and chords are parodies/interpretations of the original songs. You may use it for private study, scholarship, research or language learning purposes only