>
 >
August Rush - Dueling Guitars 4

August Rush - Dueling Guitars 4 Guitar Tabs

Misc Soundtrack - August Rush - Dueling Guitars 4 chords, tabs, tablatures, lyrics

Guitar lessons | Add/correct | Request | Top 50 tabs Artists:  A B C D E F G H I J K L M N O P Q R S T U V W X Y Z 0-9

August Rush - Dueling Guitars 4 Guitar Tabs – Misc Soundtrack

CD, Sheet music, Poster

Do you like August Rush - Dueling Guitars 4? Share with your friends now
TabsTabs v2Tabs v3Tabs v4Tabs v5
Dueling guitars


Numbers in brackets above tabs means you have to tap strings with your 
right hand at (12) - twelft  fret
               (7) - seveth
               (5) - fifth

(h) - tap strings above with your left hand
(P) - hit the soundboard with your right hand
 +  - harmonics
 h  - hammer-on
 p  - pull-off
 /  - slide Up
 \  - slide Down
 X  - mute
 ~  - let ring

Tuning (DADAAd)

August part:

     (12)         (7)        (12)         (5)
d|-----0-----------0-----------0-----------0--------------------------|
A|-----0-----------0-----------0-----------0--------------------------|
A|-----0-----------0-----------0-----------0--------------------------|
D|-----0-----------0-----------0-----------0--------------------------|
A|-----0-----------0-----------0-----------0--------------------------|
D|-----0-----------0-----------0-----------0--------------------------|

d|--------------12+------12+---------------------12+------12+---------|
A|--------------------------------------------------------------------|
A|-----------12+-------12+--------------------12+-------12+-----------|
D|--2/4----12+-------12+-----5\4-2-0-2/4----12+-------12+-------------|
A|-------12+-------12+--------------------12+-------12+---------------|
D|--------------------------------------------------------------------|

                    (12)
d|--------------------7-----------------------------------------------|
A|--------------------5-----------------------------------------------|
A|--------------------0-----------------------------------------------|
D|---5\4-2-0----------0-----------------------------------------------|
A|-----------0h2------0-----------------------------------------------|
D|--------------------5-----------------------------------------------|

Louis part:

                                       
d|---5--7--7--5--7---5--7--7--5--7--------------------------0h2-------|
A|---5--5--5--5~-----5--5--5--5~-----------0---0-----0---0--0---------|
A|---0--0--0--0~-----0--0--0--0~-----------0---0-----0---0--0---------|
D|---0--0--0--0~-----0--0--0--0~---------2---0--------------0---------|
A|-----------------------------------5-4---------2h4---0----0---------|
D|--------------------------------------------------------------------|


d|--------------0-----------------------------------------------------|
A|------------0--0----------------------------------------------------|
A|------------0-------------------------------------------------------|
D|---2-4-4-2--0-----5~------------------------------------------------|
A|------------0-----7p5-----------------------------------------------|
D|------------------5~------------------------------------------------|

August part:

   (12)  (12) (12) (12) (12)
d|--------------------------------------------------------------------|
A|--------------------------------------------------------------------|
A|---0~----0----0----0----0-------------------------------------------|
D|---2~h4--4----2----2h4--2p0-----------------------------------------|
A|---0~----0----0----0----0-------------------------------------------|
D|--------------------------------------------------------------------|

Louis part:

d|--------------0------------------7-0--5-0--4-0--2-0-----------------|
A|------------0--0-----------------7-0--5-0--4-0--2-0-----------------|
A|------------0--------------------7-0--5-0--4-0--2-0-----------------|
D|---2-4-4-2--0-----5~-------------7-0--5-0--4-0--2-0-----------------|
A|------------0-----7p5--5-7-5-----7----5----4----2-0-----------------|
D|------------------5~---------0~-------------------------------------|

August part:

           (12)    (12)    (12)    (12)
d|--------------------------------------------------------------------|
A|--------------------------------------------------------------------|
A|--------------------------------------------------------------------|
D|-------7---0---5---0---4---0---2---0--------------------------------|
A|-------7---0---5---0---4---0---2---0--------------------------------|
D|---0~--7---0---5---0---4---0---2---0--------------------------------|
        (h)     (h)     (h)     (h)

Louis part:

d|-------7---0---5---0---4---0---2---0--------------------------------|
A|-------7---0---5---0---4---0---2---0--------------------------------|
A|-------7---0---5---0---4---0---2---0--------------------------------|
D|-------7---0---5---0---4---0---2---0--------------------------------|
A|-------7-------5-------4-------2---0--------------------------------|
D|---0~---------------------------------------------------------------|

August part:

           (12)    (12)    (12)    (12)(12)
d|--------------------------------------------------------------------|
A|--------------------------------------------------------------------|
A|--------------------------------------------------------------------|
D|-------7---0---5---0---4---0---2---0---0----------------------------|
A|-------7---0---5---0---4---0---2---0---0----------------------------|
D|---0~--7---0---5---0---4---0---2---0---0----------------------------|
        (h)     (h)     (h)     (h)

They plays together:

Louis

d|-------7---0---5---0---4---0---2---0---0----------------------------|
A|-------7---0---5---0---4---0---2---0---0----------------------------|
A|-------7---0---5---0---4---0---2---0---0----------------------------|
D|-------7---0---5---0---4---0---2---0---0----------------------------|
A|-------7-------5-------4-------2---0---0----------------------------|
D|--------------------------------------------------------------------|

August

             (12)    (12)    (12)    (12)(12)
d|-----------0-------0-------0-------0---0----------------------------|
A|-----------0-------0-------0-------0---0----------------------------|
A|-----------0-------0-------0-------0---0----------------------------|
D|-------7---0---5---0---4---0---2---0---0----------------------------|
A|-------7---0---5---0---4---0---2---0---0----------------------------|
D|-------7---0---5---0---4---0---2---0---0----------------------------|
        (h)     (h)     (h)     (h)

This part x5

Louis

d|-------7---0---5---0---4---0---2-------0---0------------------------|
A|-------7---0---5---0---4---0---2-------0---0------------------------|
A|-------7---0---5---0---4---0---2-------0---0------------------------|
D|-------7---0---5---0---4---0---2-------0---0------------------------|
A|-------7-------5-------4-------2-------0---0------------------------|
D|--------------------------------------------------------------------|


August

           (12)    (12)    (12)    (12)(12) (7)
d|-----------0-------0-------0-------0---0---0------------------------|
A|-----------0-------0-------0-------0---0---0------------------------|
A|-----------0-------0-------0-------0---0---0------------------------|
D|-------7---0---5---0---4---0---2---2---0---0------------------------|
A|-------7---0---5---0---4---0---2---2---0---0------------------------|
D|-------7---0---5---0---4---0---2---2---0---0------------------------|
        (h)     (h)     (h)     (h)

This part Louis plays : 050000 while August plays:

 
d|--2/4-4--5\4-2-0-2-0-2/4-4-5\4-2-0 2-0------------12+-12+-----------|
A|--0~--0--0~--0-0-0-0-0~--0-0~--0-0-0-0----------12+-----12+---------|
A|--0~--0--0~--0-0-0-0-0~--0-0~--0-0-0-0-0h2----12+---------12+-------|
D|--2/4-4--5\4-2-0-2-0-2/4-4-5\4-2-0-2-0------12+-------------12+-----|
A|---------------------------------------0h2--------------------------|
D|--------------------------------------------------------------------|

Then together:

Louis

d|---0--0--0----7---0---5---0---4---0---2-------0---0-----------------|
A|---4--5--0----7---0---5---0---4---0---2-------0---0-----------------|
A|---4--5--0----7---0---5---0---4---0---2-------0---0-----------------|
D|---0--0--0----7---0---5---0---4---0---2-------0---0-----------------|
A|---4--5--0----7-------5-------4-------2-------0---0-----------------|
D|---0--0--0----------------------------------------------------------|


August
  
                  (12)    (12)    (12)    (12)(12) (7)
d|------------------0-------0-------0-------0---0---0-----------------|
A|------------------0-------0-------0-------0---0---0-----------------|
A|------------------0-------0-------0-------0---0---0-----------------|
D|--------------7---0---5---0---4---0---2---2---0---0-----------------|
A|--------------7---0---5---0---4---0---2---2---0---0-----------------|
D|--------------7---0---5---0---4---0---2---2---0---0-----------------|
               (h)     (h)     (h)     (h)
And

Louis

d|-------7---0---5---0---4---0---2-------0---0------------------------|
A|-------7---0---5---0---4---0---2-------0---0------------------------|
A|-------7---0---5---0---4---0---2-------0---0------------------------|
D|-------7---0---5---0---4---0---2-------0---0------------------------|
A|-------7---0---5---0---4---0---2-------0---0------------------------|
D|-------7---0---5---0---4---0---2-------0---0------------------------|


August

           (12)    (12)    (12)    (12)(12) (7)
d|-----------0-------0-------0-------0---0---0------------------------|
A|-----------0-------0-------0-------0---0---0------------------------|
A|-----------0-------0-------0-------0---0---0------------------------|
D|-------7---0---5---0---4---0---2---2---0---0------------------------|
A|-------7---0---5---0---4---0---2---2---0---0------------------------|
D|-------7---0---5---0---4---0---2---2---0---0------------------------|
        (h)     (h)     (h)     (h)


Now August slaps the guitar at 12th and 7th fret while Louis plays:

d|---------------------------------------------0-0--------------------|
A|---------------------------------------0-----0-0-0-0-0--------------|
A|---0---0-0---0-0-0-0-0---0-0---0-0-0-0-0h2---2-2-2-2-2--------------|
D|---2h4-4-5p4-2-0-2-0-2h4-4-5p4-2-0-2-0-0-----0-0-0-0-0--------------|
A|---0---0-0---0-0-0-0-0---0-0---0-0-0-0------------------------------|
D|--------------------------------------------------------------------|

Together:

Louis

d|------------------------0-0-0-0-0-0-0-0-0-0-0-0-0-X-----------------|
A|---0--0--0--0--0--0--0--0-0-0-0-0-0-0-0-0-0-0-0-0-X-----------------|
A|---2--4--5--7--5--4--2--0-0-0-0-0-0-0-0-0-0-0-0-0-X-----------------|
D|---0--0--0--0--0--0--0--0-0-0-0-0-0-0-0-0-0-0-0-0-X-----------------|
A|---2--4--5--7--5--4--2--0-0-0-0-0-0-0-0-0-0-0-0-0-X-----------------|
D|--------------------------------------------------X-----------------|

August


d|---9-11-12-14-12-11--9--7-7-7-7-7-7-7-7-7-7-7-7-7-X-----------------|
A|---0--0--0--0--0--0--0--0-0-0-0-0-0-0-0-0-0-0-0-0-x-----------------|
A|---0--0--0--0--0--0--0--0-0-0-0-0-0-0-0-0-0-0-0-0-X-----------------|
D|---9-11-12-14-12-11--9--7-7-7-7-7-7-7-7-7-7-7-7-7-x-----------------|
A|---0--0--0--0--0--0--0--0-0-0-0-0-0-0-0-0-0-0-0-0-X-----------------|
D|---9-11-12-14-12-11--9--7-7-7-7-7-7-7-7-7-7-7-7-7-x-----------------|

After a pause

Louis

d|2-4-4-2-2/4-4-2/4-2-0--2-4-4-2-2/4-4-2/4-2-0--2-4-4-2-2/4-4-2/4-2-0--0-2-0|
A|0-0-0-0-0-0-0-0-0-0-0--0-0-0-0-0-0-0-0-0-0-0--0-0-0-0-0-0-0-0-0-0-0--0-0-0|
A|0-0-0-0-0-0-0-0-0-0-0--0-0-0-0-0-0-0-0-0-0-0--0-0-0-0-0-0-0-0-0-0-0--0-0-0|
D|2-4-4-2-2/4-4-2/4-2-0--2-4-4-2-2/4-4-2/4-2-0--2-4-4-2-2/4-4-2/4-2-0--0-2-0|
A|0-0-0-0-0-0-0-0-0-0-0--0-0-0-0-0-0-0-0-0-0-0--0-0-0-0-0-0-0-0-0-0-0--0-0-0|
D|0-0-0-0-0-0-0-0-0-0-0--0-0-0-0-0-0-0-0-0-0-0--0-0-0-0-0-0-0-0-0-0-0--0-0-0|

August

            (12)    (12)           (12)    (12)           (12)    (12)
d|2-4-4-2~~/4-4-2/4-2-0--2-4-4-2~~/4-4-2/4-2-0--2-4-4-2~~/4-4-2/4-2-0--0-2-0|
A|0-0-0-0~~---0-0-0-0-0--0-0-0-0~~---0-0-0-0-0--0-0-0-0~~---0-0-0-0-0--0-0-0|
A|0-0-0-0~~---0-0-0-0-0--0-0-0-0~~---0-0-0-0-0--0-0-0-0~~---0-0-0-0-0--0-0-0|
D|2-4-4-2~~/4-4-2/4-2-0--2-4-4-2~~/4-4-2/4-2-0--2-4-4-2~~/4-4-2/4-2-0--0-2-0|
A|0-0-0-0~~---0-0-0-0-0--0-0-0-0~~---0-0-0-0-0--0-0-0-0~~---0-0-0-0-0--0-0-0|
D|--------------------------------------------------------------------------|
        (P)         (P)        (P)        (P)         (P)        (P)

This part x3

Louis

d|-------7---0---5---0---4---0---2-------0---0------------------------|
A|-------7---0---5---0---4---0---2-------0---0------------------------|
A|-------7---0---5---0---4---0---2-------0---0------------------------|
D|-------7---0---5---0---4---0---2-------0---0------------------------|
A|-------7---0---5---0---4---0---2-------0---0------------------------|
D|-------7---0---5---0---4---0---2-------0---0------------------------|


August

           (12)    (12)    (12)    (12)(12) (7)
d|-----------0-------0-------0-------0---0---0------------------------|
A|-----------0-------0-------0-------0---0---0------------------------|
A|-----------0-------0-------0-------0---0---0------------------------|
D|-------7---0---5---0---4---0---2---2---0---0------------------------|
A|-------7---0---5---0---4---0---2---2---0---0------------------------|
D|-------7---0---5---0---4---0---2---2---0---0------------------------|
        (h)     (h)     (h)     (h)

Ending

Louis

d|-------7---0---5---0---4---0---2-------0----------------------------|
A|-------7---0---5---0---4---0---2-------0----------------------------|
A|-------7---0---5---0---4---0---2-------0----------------------------|
D|-------7---0---5---0---4---0---2-------0----------------------------|
A|-------7---0---5---0---4---0---2-------0----------------------------|
D|-------7---0---5---0---4---0---2-------0---0------------------------|


August

           (12)    (12)    (12)    (12)(12) (7)
d|-----------0-------0-------0-------0---0---0------------------------|
A|-----------0-------0-------0-------0---0---0------------------------|
A|-----------0-------0-------0-------0---0---0------------------------|
D|-------7---0---5---0---4---0---2---2---0---0------------------------|
A|-------7---0---5---0---4---0---2---2---0---0------------------------|
D|-------7---0---5---0---4---0---2---2---0---0------------------------|
        (h)     (h)     (h)     (h)

In the end Louis play:


d|-------0~~---|
A|-------0~~---|
A|-------0~~---|
D|-------7~~---|
A|-------0~~---|
D|-------7~~---|





Comments


Popular Misc Soundtrack tabs & chords
Bare A Pop Opera - Portrait Of A Girl Chords
Godfather Theme Chords
Bad Boys 1 Theme Tabs
Cheers Theme Tabs
Gremlins Theme 1 Tabs
Harry Potter And The Half Blood Prince - When Ginny Kissed Harry Tabs
Pulp Fiction Tabs
A Clockwork Orange - Title Ukulele
A Mighty Wind - Never Did No Wanderin Ukulele
Black Orpheus Theme Ukulele


Song lyrics



↑ Back to top | Tablatures and chords are parodies/interpretations of the original songs. You may use it for private study, scholarship, research or language learning purposes only
© 2014 AZChords.com Contact us | Privacy policy | DMCA | Add/correct tabs | Request tabs | Top 50 tabs