>
 >
August Rush - Dueling Guitars 3

August Rush - Dueling Guitars 3 Guitar Tabs

Misc Soundtrack - August Rush - Dueling Guitars 3 chords, tabs, tablatures, lyrics

Guitar lessons | Add/correct | Request | Top 50 tabs Artists:  A B C D E F G H I J K L M N O P Q R S T U V W X Y Z 0-9

August Rush - Dueling Guitars 3 Guitar Tabs – Misc Soundtrack

CD, Sheet music, Poster

Do you like August Rush - Dueling Guitars 3? Share with your friends now
TabsTabs v2Tabs v3Tabs v4Tabs v5
August
||-------------------------------------|
||-------------------------------------|
||-------------------------------------|
||-------------------------------------|
||-------------------------------------|
||-------------------------------------|
Louis
||-------------------------------------|
||---------------3---------------------|
||------------2----2-------------------|
||-2--4--4--2-4------------------------|
||------------0------------7--5--------|
||-------------------------5-----------|

August
||--------------------------------------|
||--------------------------------------|
||--------------------------------------|
||--2h4--4p2--4-----2p0-----------------|
||--0----0----0-----0-------------------|
||--0----0----0-----0-------------------|
Louis
||--------------------------------------|
||--------------------------------------|
||--------------------------------------|
||--------------------------------------|
||--------------------------------------|
||--------------------------------------|

August
||---------------------------------------------|
||---------------3-----------------------------|
||------------2----2---------------------------|
||-2--4--4--2-4--------------------------------|
||------------0-------------7--5-------5--7p5--|
||--------------------------5------------------|
Louis
||---------------------------------------------|
||---------------------------------------------|
||---------------------------------------------|
||---------------------------------------------|
||---------------------------------------------|
||---------------------------------------------|

|  August
| ||---------------------------------------|
| ||---------------------------------------|
| ||---------------------------------------|
| ||---9--x--7--x--6--x--4--x--2==---------|
| ||---7--x--5--x--4--x--2--x--0==---------|
| ||-0-------------------------------------|
x2||Louis
| ||---------------------------------------|
| ||---------------------------------------|
| ||---------------------------------------|
| ||---------------------------------------|
| ||---------------------------------------|
| ||---------------------------------------|

   August
| ||---------------------------------------|
| ||---------------------------------------|
| ||---------------------------------------|
| ||-7-----5-----4-----2-----0-------------|
| ||-7--x--5--x--4--x--2--x--0-------------|
| ||-7--x--5--x--4--x--2--x--0-------------|
x2||Louis
| ||---------------------------------------|
| ||---------------------------------------|
| ||---------------------------------------|
| ||---------------------------------------|
| ||---------------------------------------|
| ||---------------------------------------|

   August
| ||---------------------------------------|
| ||---------------------------------------|
| ||---------------------------------------|
| ||---9--x--7--x--6--x--4--x--2==---------|
| ||---7--x--5--x--4--x--2--x--0==---------|
| ||-0-------------------------------------|
x6||Louis
| ||---------------------------------------|
| ||---------------------------------------|
| ||---------------------------------------|
| ||-7-----5-----4-----2-----0-------------|
| ||-7--x--5--x--4--x--2--x--0-------------|
| ||-7--x--5--x--4--x--2--x--0-------------|

August
||-0-2-3-2---0-0---0-2---------3-2---0-0--------------|
||-3-3-3-3---3-3-3-3-3---------3-3---3-3-3------------|
||-2-2-2-2---2-2-2-2-2---------2-2---2-2-2--2-4-------|
||----------------------------------------------------|
||----------------------------------------------------|
||----------------------------------------------------|
Louis
||------------------------------------------------------------------------|
||-7---7-7---7-7-7---7---7-7---7-7-7---7---7-7---7-7-7---7---7-7---7------|
||-7---7-7---7-7-7---7---7-7---7-7-7---7---7-7---7-7-7---7---7-7---7------|
||-7---7-7---7-7-7---7---7-7---7-7-7---7---7-7---7-7-7---7---7-7---7------|
||-5---5-5---5-5-5---5---5-5---5-5-5---5---5-5---5-5-5---5---5-5---5------|
||-0---0-0---0-0-0---0---0-0---0-0-0---0---0-0---0-0-0---0---0-0---0--7-9-|

August
||-------------------------------------|
||-------------------------------------|
||-------------------------------------|
||-------------------------------------|
||-------------------------------------|
||-------------------------------------|
Louis
||-------------------------------------|
||-8---8-8---8-8-8---8---8-8---8-8-8---|
||-7---7-7---7-7-7---7---7-7---7-7-7---|
||-5---5-5---5-5-5---5---5-5---5-5-5---|
||-5---5-5---5-5-5---5---5-5---5-5-5---|
||-5---5-5---5-5-5---5---5-5---5-5-5---|

   August
| ||---------------------------------------|
| ||---------------------------------------|
| ||---------------------------------------|
| ||---9--x--7--x--6--x--4--x--2==---------|
| ||---7--x--5--x--4--x--2--x--0==---------|
| ||-0-------------------------------------|
x2||Louis
| ||---------------------------------------|
| ||---------------------------------------|
| ||---------------------------------------|
| ||-7-----5-----4-----2-----0-------------|
| ||-7--x--5--x--4--x--2--x--0-------------|
| ||-7--x--5--x--4--x--2--x--0-------------|

August
||------------------------------------------------------------------------|
||-7---7-7---7-7-7---7---7-7---7-7-7---7---7-7---7-7-7---7---7-7---7------|
||-7---7-7---7-7-7---7---7-7---7-7-7---7---7-7---7-7-7---7---7-7---7------|
||-7---7-7---7-7-7---7---7-7---7-7-7---7---7-7---7-7-7---7---7-7---7------|
||-5---5-5---5-5-5---5---5-5---5-5-5---5---5-5---5-5-5---5---5-5---5------|
||-0---0-0---0-0-0---0---0-0---0-0-0---0---0-0---0-0-0---0---0-0---0--7-9-|
Louis
||------------------------------------------------|
||------------------------------------------------|
||---------------------------------------2h4------|
||-2h4---5p4--2p0--2h4----2h4---5p4--2p0----------|
||------------------------------------------------|
||------------------------------------------------|

August
||--------------------------------------------------------------------|
||----2------3------5------------3-------------2-------------0--------|
||----0------0------0------------0-------------0-------------0--------|
||--------------------------------------------------------------------|
||--------------------------------------------------------------------|
||--------------------------------------------------------------------|
Louis
||------------------------------------------------------------------------|
||-8---8-8---8-8-8---8---8-8---8-8-8---8---8-8---8-8-8---8---8-8---8-8-8--|
||-7---7-7---7-7-7---7---7-7---7-7-7---7---7-7---7-7-7---7---7-7---7-7-7--|
||-5---5-5---5-5-5---5---5-5---5-5-5---5---5-5---5-5-5---5---5-5---5-5-5--|
||-5---5-5---5-5-5---5---5-5---5-5-5---5---5-5---5-5-5---5---5-5---5-5-5--|
||-5---5-5---5-5-5---5---5-5---5-5-5---5---5-5---5-5-5---5---5-5---5-5-5--|

August
||----------|-0-2-2-0-0-2-2--------0---|
||-2-2-2-2-2|-3-3-3-3-3-3-3--------3-3-|
||-2-2-2-2-2|-2-2-2-2-2-2-2--------0-0-|
||----------|------------------------0-|
||----------|--------------------------|
||----------|--------------------------|
Louis                                x4
||----------|--------------------------|
||----------|-------------7----7-7---8-|
||----------|-------------7----7-7---7-|
||-7-7-7-7-7|-------------7----7-7---5-|
||-7-7-7-7-7|-----------5-5----5-5---5-|
||-7-7-7-7-7|----------------------5-5-|

   August
| ||---------------------------------------|
| ||---------------------------------------|
| ||---------------------------------------|
| ||---9--x--7--x--6--x--4--x--2--2--------|
| ||---7--x--5--x--4--x--2--x--0--0--------|
| ||-0-------------------------------------|
x4||Louis
| ||---------------------------------------|
| ||---------------------------------------|
| ||---------------------------------------|
| ||-7-----5-----4-----2-----0-0-----------|
| ||-7--x--5--x--4--x--2--x--0-0-----------|
| ||-7--x--5--x--4--x--2--x--0-0-----------|





Comments


Popular Misc Soundtrack tabs & chords
King Of The Hill Theme Bass Tabs
Fanaa - Mere Haath Mein Tera Haath Ho Chords
Blazing Saddles Theme 1 Tabs
Cool Hand Luke Theme Tabs
From Russia With Love Tabs
From Russia With Love 1 Tabs
Gladiator Theme Tabs
La Bamba Tabs
Legend - Unicorn Tabs
Magic Roundabout Theme Tabs


Song lyrics



↑ Back to top | Tablatures and chords are parodies/interpretations of the original songs. You may use it for private study, scholarship, research or language learning purposes only
© 2014 AZChords.com Contact us | Privacy policy | DMCA | Add/correct tabs | Request tabs | Top 50 tabs