>
 >
A Team

A Team Guitar Tabs

Misc Soundtrack - A Team chords, tabs, tablatures, lyrics

Guitar lessons | Add/correct | Request | Top 50 tabs Artists:  A B C D E F G H I J K L M N O P Q R S T U V W X Y Z 0-9

A Team Guitar Tabs – Misc Soundtrack

CD, Sheet music, Poster

Do you like A Team? Share with your friends now
Tabs
A Team Theme                                   
TV Theme

Tempo : 120


      |---3---|  |---3---|  |---3---|                 
      S   S   S  S   S   S  S   S   S  T   T   T  T   
E||----------------------------------------------12S-|
B||-----------------------------------11h-13h-15-----|
G||------------------------10h-12h-14----------------|
D||-------------10h-12h-14---------------------------|
A||--10h-12h-13--------------------------------------|
E||--------------------------------------------------|


   Q     E   E   H            E   Q     E   Q.      S   S  
--13--------13---L--------|-------------------------------|
--------13----------------|--11--13----------------10h-13-|
--------------------------|------------10---L-------------|
--------------------------|-------------------------------|
--------------------------|-------------------------------|
--------------------------|-------------------------------|


   E   E    E   E   H            E.   S  S  E.   H         
--13------/15--13---L--------|--11---10-------------------|
------13---------------------|----------13-11---13--------|
-----------------------------|----------------------------|
-----------------------------|----------------------------|
-----------------------------|----------------------------|
-----------------------------|----------------------------|


   E.   S  E   E   H            E   Q     E   H         
--13---13-----13---L--------|--------------------------|
----------13----------------|--10--11----13------------|
----------------------------|----------------10--------|
----------------------------|--------------------------|
----------------------------|--------------------------|
----------------------------|--------------------------|


  E.   S E   E   H           E  Q    E  H         
---------9--11---L--------|----------------------|
--9---11------------------|----------------------|
--------------------------|--1--3----------------|
--------------------------|----------1--L--------|
--------------------------|----------------------|
--------------------------|----------------------|


   E.     S E   E   Q      Q        E.   S  E   E   H         
--10br----L--------10b----10----|--------------13---L--------|
---------------11---------------|--10---11-13----------------|
--------------------------------|----------------------------|
--------------------------------|----------------------------|
--------------------------------|----------------------------|
--------------------------------|----------------------------|


   E.     S E   E   Q      Q        E     E   E    E   H         
--18br----L--------18b----18----|--17br---L---------------------|
---------------18---------------|------------18p--17--18--------|
--------------------------------|-------------------------------|
--------------------------------|-------------------------------|
--------------------------------|-------------------------------|
--------------------------------|-------------------------------|


    E  E  E  E  E  E  E  E     E  Q    E   Q     Q     
|---------------------------|-------------------------|
|---------------------------|-------------------------|
|*--7--7--5--7-----5-----7--|-----5----5--12----10----|
|*--7--7--5--7-----5-----7--|-----5----5--12----10----|
|---5--5--3--5-----3-----5--|-----3----3--10-----8----|
|---------------------------|-------------------------|


  E  E  E  E  E  E  E  E     E  Q    E  H           
--------------------------|-----------------------||
--------------------------|-----------------------||
--7--7--5--7-----5-----3--|-----3----3--5--------*||
--7--7--5--7-----5-----3--|-----3----3--5--------*||
--5--5--3--5-----3-----1--|-----1----1--3---------||
--------------------------|-----------------------||


             |--3--| |---3--| |---3--|                                 
  E  Q    E  S  S  S S  S   S S  S   S T  T   T T    W                 
--------------------------------------------------|-------------------|
------------------------------------------------8-|--9----------------|
--3--3----3----------------------------6h-8h-10---|-------------------|
--3--3----3-------------------6h-8h-10------------|-------------------|
--1--1----1----------6h-8h-10---------------------|-------------------|
-------------6h-8h-9------------------------------|-------------------|


                                            PM PM  PM  PM  PM  PM           
  E  E    E   E      Q     H        Q       E  E   E   E   E   E   E    E   
-----------------|-----------------------|---------------------------------|
--L----------11--|--/9--------------9----|--------------------11--18p--16--|
-----------------|--------10-------------|--8-------------10---------------|
-----8h--11------|-----------------------|------------10-------------------|
-----------------|-----------------------|-----8--11-----------------------|
-----------------|-----------------------|---------------------------------|


   W                    E   E     E   E   Q     Q     
--------------------|--------------------------------|
---L----------------|---L----------------------------|
--------------------|------16br---L--15--16----13----|
--------------------|--------------------------------|
--------------------|--------------------------------|
--------------------|--------------------------------|


                               |---3---|                 
   E     E  E   E  S  S  S   S S   S   S  T   T   T  T   
--------------------------------------------------------|
----------------------------------------------------11h-|
--10br---L--8----------------------------10h-11h-13-----|
---------------11--9p-8h-9h-11-9h-11h-13----------------|
--------------------------------------------------------|
--------------------------------------------------------|


                         |---3---|                                              
   H        S S   S   S  S   S   S  T  T  T  T     E     Q     E   Q      Q     
--------------------------------------------11-|--17br---L--------17b----17----|
--12-------------------------------11-12-14----|--------------18---------------|
------------------------10h-11h-13-------------|-------------------------------|
--------------9h-11h-13------------------------|-------------------------------|
-----------------------------------------------|-------------------------------|
-----------------------------------------------|-------------------------------|


                                 >                                       
   Q     Q     E   E    Q        Q     H.              W                 
--15----20----22--22b---L----|--22b-----------------|-------------------|
--------22----18--17----L----|--18------------------|-------------------|
-----------------------------|----------------------|-------------------|
-----------------------------|----------------------|-------------------|
-----------------------------|----------------------|-------------------|
-----------------------------|----------------------|-------------------|


  W                   W                  
-------------------|-------------------||
-------------------|-------------------||
-------------------|-------------------||
-------------------|-------------------||
-------------------|-------------------||
-------------------|-------------------||





Comments


Popular Misc Soundtrack tabs & chords
Avenue Q - Theres A Fine Fine Line Chords
Big Bang Theory - Soft Kitty Chords
Camp Rock 2 - Wouldnt Change A Thing Chords
Leap Of Faith Theme Chords
Damned Tabs
Harry Potter Theme Intro Tabs
How Do You Talk To An Angel Tabs
Jannat - Jannat Jahan Tabs
Jaws Theme 1 Tabs
Lord Of The Rings - The Shire Tabs


Song lyrics



↑ Back to top | Tablatures and chords are parodies/interpretations of the original songs. You may use it for private study, scholarship, research or language learning purposes only
© 2014 AZChords.com Contact us | Privacy policy | DMCA | Add/correct tabs | Request tabs | Top 50 tabs