» » »

A Summer Place Tabs (ver.1)

Artists:  A B C D E F G H I J K L M N O P Q R S T U V W X Y Z # 

A Summer Place Tabs (ver.1)

Misc Soundtrack
Rating:
5/5 (1 vote)

Hard to play? Try these video lessons and learn fast.
                (Theme)
THEME FROM A SUMMER PLACE


The Ventures


  INTR0



   F              Dm               Gm             C
e|-------------------------------|-------------------------------|
B|-------------------------------|-------------------------------|
G|-------------------------------|-------------------------------|
D|-------------------------------|-------------------------------|
A|-------------------------------|-------------------------------|
E|-------------------------------|-------------------------------|




   F              Dm               Gm             C
e|-------------------------------|-------------------------------|
B|-------------------------------|-------------------------------|
G|-------------------------------|-------------------------------|
D|-------------------------------|-------------------------------|
A|-------------------------------|-------------------------------|
E|-------------------------------|-------------------------------|





  VERSE


   F              Dm               Gm             C
e|-------------------------------|-------------------------------|
B|-------------------------------|-------------------------------|
G|-------------------------------|-------------------------------|
D|-------------------------------|----------------3---------2----|
A|-3-----------------------------|-----------5-------------------|
E|-------------------------------|-------------------------------|




   F              Dm               Gm             C
e|-------------------------------|-------------------------------|
B|-------------------------------|-------------------------------|
G|-------------------------------|-------------------------------|
D|-------------------------------|----------------3---------2----|
A|-3-----------------------------|-----------5-------------------|
E|-------------------------------|-------------------------------|




   F                               Gm             C
e|-------------------------------|-------------------------------|
B|-------------------------------|-------------------------------|
G|-------------------------------|-------------------------------|
D|-5-B-7-------------------------|--------------------------5----|
A|--------------------------7----|-5-------------------7---------|
E|-------------------------------|-------------------------------|




   F                               Gm             C
e|-------------------------------|-------------------------------|
B|-------------------------------|-------------------------------|
G|-------------------------------|-------------------------------|
D|-5-B-7-------------------------|--------------------------5----|
A|--------------------------7----|-5-------------------7---------|
E|-------------------------------|-------------------------------|





  VERSE


   F              Dm               Gm
e|-------------------------------|-------------------------------|
B|-------------------------------|-------------------------------|
G|-------------------------------|-------------------------------|
D|-------------------------------|----------------3---------2----|
A|-3-----------------------------|-----------5-------------------|
E|-------------------------------|-------------------------------|




   F              Dm               Gm             C
e|-------------------------------|-------------------------------|
B|-------------------------------|-------------------------------|
G|-------------------------------|-------------------------------|
D|-------------------------------|----------------3---------2----|
A|-3-----------------------------|-----------5-------------------|
E|-------------------------------|-------------------------------|




   F                               Gm             C
e|-------------------------------|-------------------------------|
B|-------------------------------|-------------------------------|
G|-------------------------------|-------------------------------|
D|-5-B-7-------------------------|--------------------------5----|
A|--------------------------7----|-5-------------------7---------|
E|-------------------------------|-------------------------------|




   F                               Gm             C
e|-------------------------------|-------------------------------|
B|-------------------------------|-------------------------------|
G|-------------------------------|-------------------------------|
D|-5-B-7-------------------------|--------------------------5----|
A|--------------------------7----|-5-------------------7---------|
E|-------------------------------|-------------------------------|




   F              Dm               Gm             C
e|-------------------------------|-------------------------------|
B|-------------------------------|-------------------------------|
G|-------------------------------|-------------------------------|
D|-3-----------------------------|--------------------------5----|
A|-------------------------------|---------------------7---------|
E|-------------------------------|-------------------------------|




   F              Dm               Gm             C
e|-------------------------------|-------------------------------|
B|-------------------------------|-------------------------------|
G|-------------------------------|-------------------------------|
D|-3-----------------------------|--------------------------5----|
A|-------------------------------|---------------------7---------|
E|-------------------------------|-------------------------------|





  BRIDGE


   Dm             Am               Bb             Gm
e|-------------------------------|-------------------------------|
B|-6-------------------5---------|-5-----------------------------|
G|-------------------------------|----------------7--------------|
D|--------------------------7----|-------------------------------|
A|-------------------------------|-------------------------------|
E|-------------------------------|-------------------------------|




   F              Dm               G              Bbm
e|-------------------------------|-------------------------------|
B|-------------------------------|-------------------------------|
G|-5-----------------------------|-5--------------3--------------|
D|---------------------0----3----|-------------------------------|
A|-------------------------------|-------------------------------|
E|-------------------------------|-------------------------------|




   F              Gm               G
e|-------------------------------|---------------------3B5-------|
B|-------------------------------|-3-----------------------------|
G|-2-------------------3----5----|-------------------------------|
D|-------------------------------|-------------------------------|
A|-------------------------------|-------------------------------|
E|-------------------------------|-------------------------------|




   C
e|-3-----------------------------|-------------------------------|
B|-------------------------------|--------------------------1B3--|
G|-------------------------------|---------------------0---------|
D|-------------------------------|-----------0----2--------------|
A|-------------------------------|------3------------------------|
E|-------------------------------|-------------------------------|





  VERSE


   F              Dm               Gm             C
e|-------------------------------|-------------------------------|
B|-------------------------------|-----------3----6---------5----|
G|-5-----------------------------|-------------------------------|
D|-------------------------------|-------------------------------|
A|-------------------------------|-------------------------------|
E|-------------------------------|-------------------------------|




   F              Dm               Gm             C
e|-------------------------------|-------------------------------|
B|-------------------------------|-----------3----6---------5----|
G|-5-----------------------------|-------------------------------|
D|-------------------------------|-------------------------------|
A|-------------------------------|-------------------------------|
E|-------------------------------|-------------------------------|




   F                               Gm             C
e|-3-B-5-------------------------|--------------------------3----|
B|-------------------------5-----|-3-------------------5---------|
G|-------------------------------|-------------------------------|
D|-------------------------------|-------------------------------|
A|-------------------------------|-------------------------------|
E|-------------------------------|-------------------------------|




   F                               Gm             C
e|-3-B-5-------------------------|--------------------------3----|
B|--------------------------5----|-3-------------------5---------|
G|-------------------------------|-------------------------------|
D|-------------------------------|-------------------------------|
A|-------------------------------|-------------------------------|
E|-------------------------------|-------------------------------|




   F              Dm               Gm             C
e|-------------------------------|--------------------------3----|
B|-6-----------------------------|---------------------5---------|
G|-------------------------------|-------------------------------|
D|-------------------------------|-------------------------------|
A|-------------------------------|-------------------------------|
E|-------------------------------|-------------------------------|




   F              Dm               Gm             C
e|-------------------------------|--------------------------3----|
B|-6H8P6-------------------------|---------------------5---------|
G|-------------------------------|-------------------------------|
D|-------------------------------|-------------------------------|
A|-------------------------------|-------------------------------|
E|-------------------------------|-------------------------------|




   F
e|-------------------------------|-------------------------------|
B|-6---------6----6----6----6----|-6---------6----6----8----9----|
G|-------------------------------|-------------------------------|
D|-------------------------------|-------------------------------|
A|-------------------------------|-------------------------------|
E|-------------------------------|-------------------------------|





  VERSE


   D              Bm               Em             A
e|-------------------------------|----------------10--------9----|
B|-10----------------------------|-----------12------------------|
G|-------------------------------|-------------------------------|
D|-------------------------------|-------------------------------|
A|-------------------------------|-------------------------------|
E|-------------------------------|-------------------------------|




   D              Bm               Em             A
e|-------------------------------|----------------10-------------|
B|-10----------------------------|-----------12-------------14---|
G|-------------------------------|-------------------------------|
D|-------------------------------|-------------------------------|
A|-------------------------------|-------------------------------|
E|-------------------------------|-------------------------------|




   D                               Em             A
e|-14----------------------------|--------------------------12---|
B|--------------------------14---|-12------------------14--------|
G|-------------------------------|-------------------------------|
D|-------------------------------|-------------------------------|
A|-------------------------------|-------------------------------|
E|-------------------------------|-------------------------------|




   D                               Em             A
e|-12B14-------------------------|--------------------------12---|
B|--------------------------14---|-12------------------14--------|
G|-------------------------------|-------------------------------|
D|-------------------------------|-------------------------------|
A|-------------------------------|-------------------------------|
E|-------------------------------|-------------------------------|





  VERSE



   D              Bm               Em             A
e|-15B17-------------------------|----------------10--------9----|
B|-------------------------------|-----------12------------------|
G|-------------------------------|-------------------------------|
D|-------------------------------|-------------------------------|
A|-------------------------------|-------------------------------|
E|-------------------------------|-------------------------------|




   D              Bm               Em             A
e|-------------------------------|----------------10-------------|
B|-10----------------------------|-----------12-------------14---|
G|-------------------------------|-------------------------------|
D|-------------------------------|-------------------------------|
A|-------------------------------|-------------------------------|
E|-------------------------------|-------------------------------|




   D                               Em             A
e|-14----------------------------|--------------------------12---|
B|--------------------------14---|-12------------------14--------|
G|-------------------------------|-------------------------------|
D|-------------------------------|-------------------------------|
A|-------------------------------|-------------------------------|
E|-------------------------------|-------------------------------|




   D                               Em             A
e|-12B14-------------------------|--------------------------12---|
B|--------------------------14---|-12------------------14--------|
G|-------------------------------|-------------------------------|
D|-------------------------------|-------------------------------|
A|-------------------------------|-------------------------------|
E|-------------------------------|-------------------------------|





  OUTRO

   D              Bm               Em             A
e|-10----------------------------|--------------------------12---|
B|-------------------------------|---------------------14--------|
G|-------------------------------|-------------------------------|
D|-------------------------------|-------------------------------|
A|-------------------------------|-------------------------------|
E|-------------------------------|-------------------------------|




   D              Bm               Em             A
e|-10----------------------------|--------------------------0----|
B|-------------------------------|---------------------2---------|
G|-------------------------------|-------------------------------|
D|-------------------------------|-------------------------------|
A|-------------------------------|-------------------------------|
E|-------------------------------|-------------------------------|




   D              Bm               Em             A
e|-------------------------------|-------------------------------|
B|-------------------------------|-------------------------------|
G|-2-----------------------------|-------------------------------|
D|-------------------------------|--------------------------2----|
A|-------------------------------|---------------------4---------|
E|-------------------------------|-------------------------------|




   D              Bm               Em             A
e|-------------------------------|--------------------------5----|
B|-------------------------------|---------------------2---------|
G|-------------------------------|-------------------------------|
D|-------------------------------|-------------------------------|
A|-5-----------------------------|-------------------------------|
E|-------------------------------|-------------------------------|




   D              Bm               Em             A
e|-------------------------------|--------------------------12---|
B|-------------------------------|---------------------14--------|
G|-2-----------------------------|-------------------------------|
D|-------------------------------|-------------------------------|
A|-------------------------------|-------------------------------|
E|-------------------------------|-------------------------------|




   D              Bm               Em             A
e|-10----------------------------|-------------------------------|
B|-------------------------------|-------------------------------|
G|-------------------------------|-------------------------------|
D|-------------------------------|-------------------------------|
A|-------------------------------|-------------------------------|
E|-------------------------------|-------------------------------| ....
            
Hard to play? Try these video lessons and learn fast. | Correct




comments powered by Disqus
↑ Back to top | Tablatures and chords are parodies/interpretations of the original songs. You may use it for private study, scholarship, research or language learning purposes only