» » »

Addams Family Tabs (ver.3)

Artists:  A B C D E F G H I J K L M N O P Q R S T U V W X Y Z # 

Addams Family Tabs (ver.3)

Misc Soundtrack
Rating:
4/5 (8 votes)

Hard to play? Try these video lessons and learn fast.
                (Theme)
-------------------------------------------------------------------------------
                              Addams Family theme
-------------------------------------------------------------------------------

Tuning: standard (EADGBe)

This is the way that my guitar teacher taught me how to play this song.
It sounds correct to me but that's just my opinion so please comment and rate.

e|----------x-x---------x-x-------------------------x-x-|
B|----------x-x---------x-x-------------------------x-x-|
G|----------x-x---------x-x-------------------------x-x-|
D|----------x-x-------0-x-x--------0------0---------x-x-|
A|---0-2-3--x-x---0-2---x-x----0-2----0-2-----0-2-3-x-x-|
E|-3--------x-x-3-------x-x--3------3-------3-------x-x-|

e|-----2-------0-----0-------------2-------0-------------|
B|---3---3---2-----2---2---------3---3---2---------------|
G|-2-------2-----2-------2---2-2-------2-----2-2---0-2-3-|
D|-------------------------4---------------------2-------|
A|-------------------------------------------------------|
E|-------------------------------------------------------|

e|-----2-------0-----0-------------2-------0----------------------|
B|---3---3---2-----2---2---------3---3---2------------------------|
G|-2-------2-----2-------2---2-2-------2-----2---2------0---2---3-|
D|-------------------------4-------------------------2------------|
A|----------------------------------------------------------------|
E|----------------------------------------------------------------|

e|--------------------------x-x-|
B|--------------------------x-x-|
G|--------------------------x-x-|
D|---------0------0---------x-x-|
A|-----0-2----0-2-----0-2-3-x-x-|
E|---3------3------3--------x-x-|



| /  slide up
| \  slide down
| h  hammer-on
| p  pull-off
| ~  vibrato
| +  harmonic
| x  Mute note
===============================================================================
            
Hard to play? Try these video lessons and learn fast. | Correct




comments powered by Disqus
↑ Back to top | Tablatures and chords are parodies/interpretations of the original songs. You may use it for private study, scholarship, research or language learning purposes only