» » »

A Clockwork Orange Tabs (ver.1)

Artists:  A B C D E F G H I J K L M N O P Q R S T U V W X Y Z # 

A Clockwork Orange Tabs (ver.1)

Misc Soundtrack
Rating:
5/5 (2 votes)

Hard to play? Try these video lessons and learn fast.
                (Theme)
A Clockwork Orange
Guitar arrangement and
                                                         
E||--3-----------------4-----|-----4-----6--3-----------|
B||-----------5--------------|--6-----6--------------5--|
G||--------5-----5--------5--|-----5--------------5-----|
D||-----5-----------5--3-----|-----------------5--------|
A||--3-----------------------|--------------3-----------|
E||--------------------------|--------------------------|


                                                      
--------------------------|--------------------8-----|
-----------------5--------|--8--------8--------------|
--5-----------5-----5-----|--------5-----5--------8--|
-----5-----5-----------5--|-----5-----------5--------|
--------3-----------------|--6-----------------------|
--------------------------|--------------------4-----|


                                                       
-----8-----10--7--------7--|-----------------8--------|
--8------------------8-----|--8-----------8--------8--|
--------8---------7--------|-----7-----7--------7-----|
-----6---------5-----------|--------5--------7--------|
---------------------------|--------------------------|
---------------------------|--------------------------|


                                                         
--10--------10--------8-----|------5--------6--------6--|
---------8------8-----------|--10--------7--------8-----|
------7------------7-----8--|---------7--------7--------|
----------------------------|---------------5-----------|
----------------------------|------5--------------------|
--6-------------------8-----|---------------------------|


                                                      
-----------------6--------|--6--------6--------4-----|
--8-----------8-----8-----|--------8-----8-----------|
-----7-----7-----------7--|-----8-----------8-----5--|
--------5-----------------|--------------------6-----|
--------------------------|--6-----------------------|
--------------------------|--------------------------|


                                                      
--------------------------|-----------------------6--|
--6--6-----6--8--------8--|-----------------8--------|
--------7-----------8-----|--8-----------8-----8-----|
-----8-----------8--------|-----8-----8--------------|
--------------6-----------|--------6-----------------|
--------------------------|--------------------------|


                                                      
--8--------8--------8-----|-----7--------8--------8--|
--------8-----8-----------|--9--------8--------8-----|
-----8-----------8-----7--|--------7--------8--------|
--------------------------|-----5--------------------|
--------------------8-----|--------------------------|
--8-----------------------|--------------8-----------|


                                                                 
-------------------------------------|--8--------8--------8-----|
--8-------------9--------------8-----|--------8-----8-----------|
-----8-------10---10---------7---7---|-----8-----------8-----7--|
----------10---------10----9-------9-|--------------------------|
--------8---------------10-----------|--------------------8-----|
-------------------------------------|--8-----------------------|


                                                      
-----7--------8--------8--|-----------------8--------|
--9--------8--------8-----|--8-----------8-----8-----|
--------7--------9--------|-----9-----9-----------9--|
-----5--------------------|--------------------------|
--------------------------|--------------------------|
--------------8-----------|--------8-----------------|


                                                      
--3-----------------4-----|-----4-----6--3-----------|
-----------5--------------|--6-----6--------------5--|
--------5-----5--------5--|-----5--------------5-----|
-----5-----------5--3-----|-----------------5--------|
--3-----------------------|--------------3-----------|
--------------------------|--------------------------|


                                                      
--------------------------|--------------------8-----|
-----------------5--------|--8--------8--------------|
--5-----------5-----5-----|--------5-----5--------8--|
-----5-----5-----------5--|-----5-----------5--------|
--------3-----------------|--6-----------------------|
--------------------------|--------------------4-----|


                                                       
-----8-----10--7--------7--|-----------------8--------|
--8------------------8-----|--8-----------8--------8--|
--------8---------7--------|-----7-----7--------7-----|
-----6---------5-----------|--------5--------7--------|
---------------------------|--------------------------|
---------------------------|--------------------------|


                                                         
--10--------10--------8-----|------5--------6--------6--|
---------8------8-----------|--10--------7--------8-----|
------7------------7-----8--|---------7--------7--------|
----------------------------|---------------5-----------|
----------------------------|------5--------------------|
--6-------------------8-----|---------------------------|


                                                      
-----------------6--------|--6--------6--------4-----|
--8-----------8-----8-----|--------8-----8-----------|
-----7-----7-----------7--|-----8-----------8-----5--|
--------5-----------------|--------------------6-----|
--------------------------|--6-----------------------|
--------------------------|--------------------------|


                                                      
--------------------------|-----------------------6--|
--6--6-----6--8--------8--|-----------------8--------|
--------7-----------8-----|--8-----------8-----8-----|
-----8-----------8--------|-----8-----8--------------|
--------------6-----------|--------6-----------------|
--------------------------|--------------------------|


                                                      
--8--------8--------8-----|-----7--------8--------8--|
--------8-----8-----------|--9--------8--------8-----|
-----8-----------8-----7--|--------7--------8--------|
--------------------------|-----5--------------------|
--------------------8-----|--------------------------|
--8-----------------------|--------------8-----------|


                                                                 
-------------------------------------|--8--------8--------8-----|
--8-------------9--------------8-----|--------8-----8-----------|
-----8-------10---10---------7---7---|-----8-----------8-----7--|
----------10---------10----9-------9-|--------------------------|
--------8---------------10-----------|--------------------8-----|
-------------------------------------|--8-----------------------|


                                                      
-----7--------8--------8--|--------8--------8--------|
--9--------8--------8-----|--8-----------9-----9-----|
--------7--------8--------|-----8-----7-----------7--|
-----5--------------------|--------------------------|
--------------------------|--------------------------|
--------------8-----------|--------8-----------------|


                                                    
--8--------8--------8-----|-----8--------8--------||
--------8-----8-----------|--9-----9-----8--------||
-----8-----------8-----7--|-----------7--9--------||
--------------------------|-----------------------||
--------------------------|-----------------------||
--8-----------------8-----|--------------8--------||
            
Hard to play? Try these video lessons and learn fast. | Correct




comments powered by Disqus
↑ Back to top | Tablatures and chords are parodies/interpretations of the original songs. You may use it for private study, scholarship, research or language learning purposes only