» » »

Above The Law Tabs (ver.1)

Artists:  A B C D E F G H I J K L M N O P Q R S T U V W X Y Z # 

Above The Law Tabs (ver.1)

Misc Soundtrack
Rating:
0/5 (0 votes)

Hard to play? Try these video lessons and learn fast.
                (Theme)
-------------------------------------------------------------------------------
the Law Theme
-------------------------------------------------------------------------------

Tuning: Standard

This is one of my first tabs so there might be a couple of mistakes here and there but I
it's pretty close. The first part is the beginning of the song, and then becomes the
in the backround.

e|---------------------------------------------------------------------------|
B|---------------------------------------------------------------------------|
G|---------------------------------------------------------------------------|
D|----7-----5------7-------5--------5--------9-------------------------------|
A|---------------------------------------------------------------------------|
E|---------------------------------------------------------------------------|

e|---------------------------------------------------------------------------|
B|---------------------------------------------------------------------------|
G|---------------------------------------------------------------------------|
D|-----7-----5-----7-----5------5------9---------7----5---7-----5-----5----7-|
A|---------------------------------------------------------------------------|
E|---------------------------------------------------------------------------|

At this point, that part becomes the melody (or the bass, however you want to think
it).

e|---------------------------------------------------------------------------|
B|---------------------------------------------------------------------------|
G|----7------9------5~~~~~3------8-------5------7-----9\2------0-------------|
D|-------------------------------------------------------------------0-------|
A|---------------------------------------------------------------------------|
E|---------------------------------------------------------------------------|

e|---------------------------------------------------------------------------|
B|---------------------------------------------------------------------------|
G|----7------9------5~~~~~3------8-------5------7-----9\2------0-------------|
D|-------------------------------------------------------------------0-------|
A|---------------------------------------------------------------------------|
E|---------------------------------------------------------------------------|

| /  slide up
| \  slide down
| h  hammer-on
| p  pull-off
| ~  vibrato
| +  harmonic
| x  Mute note
=============================================================================
            
Hard to play? Try these video lessons and learn fast. | Correct




comments powered by Disqus
↑ Back to top | Tablatures and chords are parodies/interpretations of the original songs. You may use it for private study, scholarship, research or language learning purposes only