» » »

Misc Soundtrack, 28 Weeks Later - Don Abandons Alice Tabs (ver.1)

Artists:  A B C D E F G H I J K L M N O P Q R S T U V W X Y Z # 

28 Weeks Later - Don Abandons Alice Tabs (ver.1)

Misc Soundtrack Tabs
 Rating:
4.3/5 (6 votes)
28 Weeks Later - Don Abandons Alice lessons Tabs too difficult? Try these video lessons and learn fast
                -------------------------------------------------------------------------------
                             28 Weeks Later
                     DON ABANDONS ALICE - John Murphy
-------------------------------------------------------------------------------

also worth noting that there's at least two guitars in the song, so I'll try and give you both

Guitar 1
Tuning: Standard

e|-----------------------------|
B|-----------------------------|
G|-6--6--7--7--9--9--10--10----|
D|-0--0--0--0--0--0--0---0-----|  x8
A|-----------------------------|
E|-----------------------------|

Then the song kicks in, distortion on etc. The same run up, but more notes hit, slides 
the changes and octaved:


e|-9------10----12-----13----------------------------------------------------|
B|--(x8)---(x8)---(x8)----(x8)-----------------------------------------------|
G|-6------7-----9------10----------------------------------------------------|
D|---------------------------------------------------------------------------|
A|---------------------------------------------------------------------------|
E|---------------------------------------------------------------------------|

This riff continues, and soon becomes tremolo picking up until 2.31 where guitar cuts 
to just the piano (D and D an octave up I think)


Guitar 2
Tuning Standard

Below the quiet bit there are chords strummed following the bassline D Bb F G, but I 
quite suss out the details- any suggestions welcomed

However, when the heavy bit kicks in, it's good old power chords:

e|---------------------------------------------------------------------------|
B|---------------------------------------------------------------------------|
G|-7------3------------------------------------------------------------------|
D|-7-(x8)-3-(x8)-3------5----------------------------------------------------|
A|-5------1------3-(x8)-5-(x8)-----------------------------------------------|
E|---------------1------3----------------------------------------------------|

Note, each group of 8 chords covers an entire run up (32 notes) on the lead riff


That's that! If you want to download the song off itunes, go for Don Abandons Alice 
than 28 theme, as 28 theme doesnt kick in with the fun bit.

Enjoy!


| /  slide up
| \  slide down
| h  hammer-on
| p  pull-off
| ~  vibrato
| +  harmonic
| x  Mute note
            
Submit corrections

comments powered by Disqus
↑ Back to top | Misc Soundtrack Tabs for 28 Weeks Later - Don Abandons Alice. Lyrics for acoustic guitar and electric guitar. Tablatures and chords are parodies/interpretations of the original songs. You may use it for private study, scholarship, research or language learning purposes only