>
 >
28 Days Later - In The House - In A Heartbeat

28 Days Later - In The House - In A Heartbeat Guitar Tabs

Misc Soundtrack - 28 Days Later - In The House - In A Heartbeat chords, tabs, tablatures, lyrics

Guitar lessons | Add/correct | Request | Top 50 tabs Artists:  A B C D E F G H I J K L M N O P Q R S T U V W X Y Z 0-9

28 Days Later - In The House - In A Heartbeat Guitar Tabs – Misc Soundtrack

CD, Sheet music, Poster

Do you like 28 Days Later - In The House - In A Heartbeat? Share with your friends now
TabsTabs v2
-------------------------------------------------------------------------------
                 In The House, In A Heartbeat - John Murphy
-------------------------------------------------------------------------------

Tuning:E,a,d,g,b,e

-------
 Intro
-------

  Guitar I
e|-----17------17------17------17------17------17------17------17------------|
B|-15------15------15------15------15------15------15------15----------------|
G|--x14-----x14-----x14-----x14-----x14-----x14-----x14-----x14--------------|
D|---------------------------------------------------------------------------|
A|---------------------------------------------------------------------------|
E|---------------------------------------------------------------------------|
   |             The muted notes are not really needed                     |
  Bass                                                                     |
G|---------------------------------------------------------------------------|
D|---------------------------------------------------------------------------|
A|----------------------------------1----------------------------------------|
E|---------------------------------------------------------------------------|

  Guitar I
e|-----17------17------17------17------17------17------17------17------------|
B|-15------15------15------15------15------15------15------15----------------|
G|--x14-----x14-----x14-----x14-----x14-----x14-----x14-----x14--------------|
D|---------------------------------------------------------------------------|
A|---------------------------------------------------------------------------|
E|---------------------------------------------------------------------------|
   |                                                                       |
  Bass                                                                     |
G|---------------------------------------------------------------------------|
D|---------------------------------------------------------------------------|
A|-5--5--5-5-55----5--5--5-5-55---5\1--1--1-1-11----1--1--1-1-11-------------|
E|---------------------------------------------------------------------------|

  Guitar I
e|-----17------17------17---------|
B|-15------15------15------15-----|
G|--------------------------------|
D|--------------------------------|
A|--------------------------------|
E|--------------------------------|
   |                            |
  Bass                          |
G|--------------------------------|
D|--------------------------------|
A|1/8--8--8-8-88--7--7--7--7--7---|
E|--------------------------------|
   |                            |
  Guitar II                     |
e|--------------------------------|
B|--------------------------------|
G|10--10-10-10-10-9--9--9--9--9---|
D|10--10-10-10-10-9--9--9--9--9---|
A|8---8--8--8--8--7--7--7--7--7---|
E|--------------------------------|

--------
 Part 1 -  Clean
--------

  Guitar I
e|-----17------17------17------17------17------17------17------17------------|
B|-15------15------15------15------15------15------15------15----------------|
G|--x14-----x14------19------19-----x14-----x14-----x14-----x14--------------|
D|---------------------------------------------------------------------------|
A|---------------------------------------------------------------------------|
E|---------------------------------------------------------------------------|
   |                                                                       |
  Guitar II                                                                |
e|---------------------------------------------------------------------------|
B|---------------------------------------------------------------------------|
G|-6---6---7---7---9---9---10-10---6---6---7---7---9---9---10-10-------------|
D|---7---7---7---7---7---7---7---7---8---8---8---8---8---8---8---8-----------|
A|---------------------------------------------------------------------------|
E|---------------------------------------------------------------------------|
   |                                                                       |
  Guitar III                                                               |
e|---------------------------------------------------------------------------|
B|---------------------------------------------------------------------------|
G|-7-------------------------------3-----------------------------------------|
D|-7-------------------------------3-----------------------------------------|
A|-5-------------------------------1-----------------------------------------|
E|---------------------------------------------------------------------------|
   |                                                                       |
  Bass                                                                     |
G|---------------------------------------------------------------------------|
D|---------------------------------------------------------------------------|
A|-5--5--5-5-55----5--5--5-5-55---5\1--1--1-1-11----1--1--1-1-11-------------|
E|---------------------------------------------------------------------------|


  Guitar I
e|-----17------17------17------17------17------17------17------17------------|
B|-15------15------15------15------15------15------15------15----------------|
G|--x14-----x14-----x14-----x14-----x14-----x14-----x14-----x14--------------|
D|---------------------------------------------------------------------------|
A|---------------------------------------------------------------------------|
E|---------------------------------------------------------------------------|
   |                                                                       |
  Guitar II                                                                |
e|---------------------------------------------------------------------------|
B|---------------------------------------------------------------------------|
G|-6---6---7---7---9---9---10-10---6---6---7---7---9---9---10-10-------------|
D|---7---7---7---7---7---7---7---7---8---8---8---8---8---8---8---8-----------|
A|---------------------------------------------------------------------------|
E|---------------------------------------------------------------------------|
   |                                                                        |
  Guitar III                                                                |
e|---------------------------------------------------------------------------|
B|---------------------------------------------------------------------------|
G|-10------------------------------12----------------------------------------|
D|-10------------------------------12----------------------------------------|
A|-8-------------------------------10----------------------------------------|
E|---------------------------------------------------------------------------|
   |                                                                       |
  Bass                                                                     |
G|---------------------------------------------------------------------------|
D|---------------------------------------------------------------------------|
A|-8--8--8-8-88----8--8--8-8-88---8/10-10-10-10-1010-10--10--10-10-1010------|
E|---------------------------------------------------------------------------|

  Guitar I
e|-----17------17------17------17------17------17------17------17------------|
B|-15------15------15------15------15------15------15------15----------------|
G|--x14-----x14-----x14-----x14-----x14-----x14-----x14-----x14--------------|
D|---------------------------------------------------------------------------|
A|---------------------------------------------------------------------------|
E|---------------------------------------------------------------------------|
   |                                                                       |
  Guitar II                                                                |
e|---------------------------------------------------------------------------|
B|---------------------------------------------------------------------------|
G|-6---6---7---7---9---9---10-10---6---6---7---7---9---9---10-10-------------|
D|---7---7---7---7---7---7---7---7---8---8---8---8---8---8---8---8-----------|
A|---------------------------------------------------------------------------|
E|---------------------------------------------------------------------------|
   |                                                                       |
  Guitar III                                                               |
e|---------------------------------------------------------------------------|
B|---------------------------------------------------------------------------|
G|-7--7--7-7-77----7--7--7-7-77----3--3--3-3-33----3--3--3-3-33--------------|
D|-7--7--7-7-77----7--7--7-7-77----3--3--3-3-33----3--3--3-3-33--------------|
A|-5--5--5-5-55----5--5--5-5-55----1--1--1-1-11----1--1--1-1-11--------------|
E|---------------------------------------------------------------------------|
   |                                                                       |
  Bass                                                                     |
G|---------------------------------------------------------------------------|
D|---------------------------------------------------------------------------|
A|-5--5--5-5-55----5--5--5-5-55---5\1--1--1-1-11----1--1--1-1-11-------------|
E|---------------------------------------------------------------------------|


  Guitar I
e|-----17------17------17------17------17------17------17------17------------|
B|-15------15------15------15------15------15------15------15----------------|
G|--x14-----x14-----x14-----x14-----x14-----x14-----x14-----x14--------------|
D|---------------------------------------------------------------------------|
A|---------------------------------------------------------------------------|
E|---------------------------------------------------------------------------|
   |                                                                       |
  Guitar II                                                                |
e|---------------------------------------------------------------------------|
B|---------------------------------------------------------------------------|
G|-6---6---7---7---9---9---10-10---6---6---7---7---9---9---10-10-------------|
D|---7---7---7---7---7---7---7---7---8---8---8---8---8---8---8---8-----------|
A|---------------------------------------------------------------------------|
E|---------------------------------------------------------------------------|
   |                                                                       |
  Guitar III                                                               |
e|---------------------------------------------------------------------------|
B|---------------------------------------------------------------------------|
G|-10--10--10-10---10--10--10-10---12--12--12-12---12--12--12-12-------------|
D|-10--10--10-10---10--10--10-10---12--12--12-12---12--12--12-12-------------|
A|-8---8---8--8----8---8---8--8----10--10--10-10---10--10--10-10-------------|
E|---------------------------------------------------------------------------|
   |                                                                       |
  Bass                                                                     |
G|---------------------------------------------------------------------------|
D|---------------------------------------------------------------------------|
A|-8--8--8-8-88----8--8--8-8-88---8/10-10-10-10-1010-10--10--10-10-1010------|
E|---------------------------------------------------------------------------|

  Guitar I
e|-----17------17------17------17------17------17------17------17------------|
B|-15------15------15------15------15------15------15------15----------------|
G|--x14-----x14-----x14-----x14-----x14-----x14-----x14-----x14--------------|
D|---------------------------------------------------------------------------|
A|---------------------------------------------------------------------------|
E|---------------------------------------------------------------------------|
   |                                                                       |
  Guitar II                                                                |
e|---------------------------------------------------------------------------|
B|---------------------------------------------------------------------------|
G|-6---6---7---7---9---9---10-10---6---6---7---7---9---9---10-10-------------|
D|---7---7---7---7---7---7---7---7---8---8---8---8---8---8---8---8-----------|
A|---------------------------------------------------------------------------|
E|---------------------------------------------------------------------------|
   |                                                                       |
  Guitar III                                                               |
e|---------------------------------------------------------------------------|
B|---------------------------------------------------------------------------|
G|-7--7--7-7-77----7--7--7-7-77----3--3--3-3-33----3--3--3-3-33--------------|
D|-7--7--7-7-77----7--7--7-7-77----3--3--3-3-33----3--3--3-3-33--------------|
A|-5--5--5-5-55----5--5--5-5-55----1--1--1-1-11----1--1--1-1-11--------------|
E|---------------------------------------------------------------------------|
   |                                                                       |
  Bass                                                                     |
G|---------------------------------------------------------------------------|
D|---------------------------------------------------------------------------|
A|-5--5--5-5-55----5--5--5-5-55---5\1--1--1-1-11----1--1--1-1-11-------------|
E|---------------------------------------------------------------------------|


  Guitar I
e|-----17------17------17------17------17------17------17------17------------|
B|-15------15------15------15------15------15------15------15----------------|
G|--x14-----x14-----x14-----x14-----x14-----x14-----x14-----x14--------------|
D|---------------------------------------------------------------------------|
A|---------------------------------------------------------------------------|
E|---------------------------------------------------------------------------|
   |                                                                       |
  Guitar II                                                                |
e|---------------------------------------------------------------------------|
B|---------------------------------------------------------------------------|
G|-6---6---7---7---9---9---10-10---6---6---7---7---9---9---10-10-------------|
D|---7---7---7---7---7---7---7---7---8---8---8---8---8---8---8---8-----------|
A|---------------------------------------------------------------------------|
E|---------------------------------------------------------------------------|
   |                                                                       |
  Guitar III                                                               |
e|---------------------------------------------------------------------------|
B|---------------------------------------------------------------------------|
G|-10--10--10-10---10--10--10-10---9--9--9-9-99----9--9--9-9-99--------------|
D|-10--10--10-10---10--10--10-10---9--9--9-9-99----9--9--9-9-99--------------|
A|-8---8---8--8----8---8---8--8----7--7--7-7-77----7--7--7-7-77--------------|
E|---------------------------------------------------------------------------|
   |                                                                       |
  Bass                                                                     |
G|---------------------------------------------------------------------------|
D|---------------------------------------------------------------------------|
A|-8--8--8-8-88----8--8--8-8-88---8\7--7--7-7-77----7--7--7-7-77-------------|
E|---------------------------------------------------------------------------|



  Guitar I
e|-----17------17------17------17------17------17------17------17------------|
B|-15------15------15------15------15------15------15------15----------------|
G|--x14-----x14-----x14-----x14-----x14-----x14-----x14-----x14--------------|
D|---------------------------------------------------------------------------|
A|---------------------------------------------------------------------------|
E|---------------------------------------------------------------------------|
   |                                                                       |
  Guitar II                                                                |
e|---------------------------------------------------------------------------|
B|---------------------------------------------------------------------------|
G|-6---6---7---7---9---9---10-10---6---6---7---7---9---9---10-10-------------|
D|---7---7---7---7---7---7---7---7---8---8---8---8---8---8---8---8-----------|
A|---------------------------------------------------------------------------|
E|---------------------------------------------------------------------------|
   |                                                                       |
  Guitar III                                                               |
e|---------------------------------------------------------------------------|
B|---------------------------------------------------------------------------|
G|-7--7--7-7-77----7--7--7-7-77----3--3--3-3-33----3--3--3-3-33--------------|
D|-7--7--7-7-77----7--7--7-7-77----3--3--3-3-33----3--3--3-3-33--------------|
A|-5--5--5-5-55----5--5--5-5-55----1--1--1-1-11----1--1--1-1-11--------------|
E|---------------------------------------------------------------------------|
   |                                                                       |
  Bass                                                                     |
G|---------------------------------------------------------------------------|
D|---------------------------------------------------------------------------|
A|-5--5--5-5-55----5--5--5-5-55---5\1--1--1-1-11----1--1--1-1-11-------------|
E|---------------------------------------------------------------------------|


  Guitar I
e|-----17------17------17------17------17------17------17------17------------|
B|-15------15------15------15------15------15------15------15----------------|
G|--x14-----x14-----x14-----x14-----x14-----x14-----x14-----x14--------------|
D|---------------------------------------------------------------------------|
A|---------------------------------------------------------------------------|
E|---------------------------------------------------------------------------|
   |                                                                       |
  Guitar II                                                                |
e|---------------------------------------------------------------------------|
B|---------------------------------------------------------------------------|
G|-6---6---7---7---9---9---10-10---6---6---7---7---9---9---10-10-------------|
D|---7---7---7---7---7---7---7---7---8---8---8---8---8---8---8---8-----------|
A|---------------------------------------------------------------------------|
E|---------------------------------------------------------------------------|
   |                                                                       |
  Guitar III                                                               |
e|---------------------------------------------------------------------------|
B|---------------------------------------------------------------------------|
G|-10--10--10-10---10--10--10-10---12--12--12-12---12--12--12-12-------------|
D|-10--10--10-10---10--10--10-10---12--12--12-12---12--12--12-12-------------|
A|-8---8---8--8----8---8---8--8----10--10--10-10---10--10--10-10-------------|
E|---------------------------------------------------------------------------|
   |                                                                       |
  Bass                                                                     |
G|---------------------------------------------------------------------------|
D|---------------------------------------------------------------------------|
A|-8--8--8-8-88----8--8--8-8-88---8/10-10-10-10-1010-10--10--10-10-1010------|
E|---------------------------------------------------------------------------|

--------
 Part 2 -  Distortion kicks in
--------
 Guitar I
e|-----17------17------17------17------17------17------17------17------------|
B|-15------15------15------15------15------15------15------15----------------|
G|--x14-----x14-----x14-----x14-----x14-----x14-----x14-----x14--------------|
D|---------------------------------------------------------------------------|
A|---------------------------------------------------------------------------|
E|---------------------------------------------------------------------------|
   |                                                                       |
  Guitar II                                                                |
e|-10--10--11--11--13--13--14-14---10--10--11--11--13--13--14-14-------------|
B|-x---x---x---x---x---x---x--x----x---x---x---x---x---x---x--x--------------|
G|-6---6---7---7---9---9---10-10---6---6---7---7---9---9---10-10-------------|
D|---------------------------------------------------------------------------|
A|---------------------------------------------------------------------------|
E|---------------------------------------------------------------------------|
   |                                                                       |
  Guitar III                                                               |
e|---------------------------------------------------------------------------|
B|---------------------------------------------------------------------------|
G|-7-------7-------7--------7------3-------3-------3-------3-----------------|
D|-7-------7-------7--------7------3-------3-------3-------3-----------------|
A|-5-------5-------5--------5------1-------1-------1-------1-----------------|
E|---------------------------------------------------------------------------|
   |                                                                       |
  Bass                                                                     |
G|---------------------------------------------------------------------------|
D|---------------------------------------------------------------------------|
A|-5--5--5-5-55----5--5--5-5-55---5\1--1--1-1-11----1--1--1-1-11-------------|
E|---------------------------------------------------------------------------|


  Guitar I
e|-----17------17------17------17------17------17------17------17------------|
B|-15------15------15------15------15------15------15------15----------------|
G|--x14-----x14-----x14-----x14-----x14-----x14-----x14-----x14--------------|
D|---------------------------------------------------------------------------|
A|---------------------------------------------------------------------------|
E|---------------------------------------------------------------------------|
   |                                                                       |
  Guitar II                                                                |
e|-10--10--11--11--13--13--14-14---10--10--11--11--13--13--14-14-------------|
B|-x---x---x---x---x---x---x--x----x---x---x---x---x---x---x--x--------------|
G|-6---6---7---7---9---9---10-10---6---6---7---7---9---9---10-10-------------|
D|---------------------------------------------------------------------------|
A|---------------------------------------------------------------------------|
E|---------------------------------------------------------------------------|
   |                                                                       |
  Guitar III                                                               |
e|---------------------------------------------------------------------------|
B|---------------------------------------------------------------------------|
G|-10------10------10-------10-----9-------9-------9-------9-----------------|
D|-10------10------10-------10-----9-------9-------9-------9-----------------|
A|-8-------8-------8--------8------7-------7-------7-------7-----------------|
E|---------------------------------------------------------------------------|
   |                                                                       |
  Bass                                                                     |
G|---------------------------------------------------------------------------|
D|---------------------------------------------------------------------------|
A|-8--8--8-8-88----8--8--8-8-88---8\7--7--7-7-77----7--7--7-7-77-------------|
E|---------------------------------------------------------------------------|

Guitar I
e|-----17------17------17------17------17------17------17------17------------|
B|-15------15------15------15------15------15------15------15----------------|
G|--x14-----x14-----x14-----x14-----x14-----x14-----x14-----x14--------------|
D|---------------------------------------------------------------------------|
A|---------------------------------------------------------------------------|
E|---------------------------------------------------------------------------|
   |                                                                       |
  Guitar II                                                                |
e|-10--10--11--11--13--13--14-14---10--10--11--11--13--13--14-14-------------|
B|-x---x---x---x---x---x---x--x----x---x---x---x---x---x---x--x--------------|
G|-6---6---7---7---9---9---10-10---6---6---7---7---9---9---10-10-------------|
D|---------------------------------------------------------------------------|
A|---------------------------------------------------------------------------|
E|---------------------------------------------------------------------------|
   |                                                                       |
  Guitar III                                                               |
e|---------------------------------------------------------------------------|
B|---------------------------------------------------------------------------|
G|-7-------7-------7--------7------3-------3-------3-------3-----------------|
D|-7-------7-------7--------7------3-------3-------3-------3-----------------|
A|-5-------5-------5--------5------1-------1-------1-------1-----------------|
E|---------------------------------------------------------------------------|
   |                                                                       |
  Bass                                                                     |
G|---------------------------------------------------------------------------|
D|---------------------------------------------------------------------------|
A|-5--5--5-5-55----5--5--5-5-55---5\1--1--1-1-11----1--1--1-1-11-------------|
E|---------------------------------------------------------------------------|


  Guitar I
e|-----17------17------17------17------17------17------17------17------------|
B|-15------15------15------15------15------15------15------15----------------|
G|--x14-----x14-----x14-----x14-----x14-----x14-----x14-----x14--------------|
D|---------------------------------------------------------------------------|
A|---------------------------------------------------------------------------|
E|---------------------------------------------------------------------------|
   |                                                                       |
  Guitar II                                                                |
e|-10--10--11--11--13--13--14-14---10--10--11--11--13--13--14-14-------------|
B|-x---x---x---x---x---x---x--x----x---x---x---x---x---x---x--x--------------|
G|-6---6---7---7---9---9---10-10---6---6---7---7---9---9---10-10-------------|
D|---------------------------------------------------------------------------|
A|---------------------------------------------------------------------------|
E|---------------------------------------------------------------------------|
   |                                                                       |
  Guitar III                                                               |
e|---------------------------------------------------------------------------|
B|---------------------------------------------------------------------------|
G|-10------10------10-------10-----12------12------12------12----------------|
D|-10------10------10-------10-----12------12------12------12----------------|
A|-8-------8-------8--------8------10------10------10------10----------------|
E|---------------------------------------------------------------------------|
   |                                                                       |
  Bass                                                                     |
G|---------------------------------------------------------------------------|
D|---------------------------------------------------------------------------|
A|-8--8--8-8-88----8--8--8-8-88---8/10-10-10-10-1010-10--10--10-10-1010------|
E|---------------------------------------------------------------------------|


Guitar I
e|-----17------17------17------17------17------17------17------17------------|
B|-15------15------15------15------15------15------15------15----------------|
G|--x14-----x14-----x14-----x14-----x14-----x14-----x14-----x14--------------|
D|---------------------------------------------------------------------------|
A|---------------------------------------------------------------------------|
E|---------------------------------------------------------------------------|
   |                                                                       |
  Guitar II                                                                |
e|-10--10--11--11--13--13--14-14---10--10--11--11--13--13--14-14-------------|
B|-x---x---x---x---x---x---x--x----x---x---x---x---x---x---x--x--------------|
G|-6---6---7---7---9---9---10-10---6---6---7---7---9---9---10-10-------------|
D|---------------------------------------------------------------------------|
A|---------------------------------------------------------------------------|
E|---------------------------------------------------------------------------|
   |                                                                       |
  Guitar III                                                               |
e|---------------------------------------------------------------------------|
B|---------------------------------------------------------------------------|
G|-7-------7-------7--------7------3-------3-------3-------3-----------------|
D|-7-------7-------7--------7------3-------3-------3-------3-----------------|
A|-5-------5-------5--------5------1-------1-------1-------1-----------------|
E|---------------------------------------------------------------------------|
   |                                                                       |
  Bass                                                                     |
G|---------------------------------------------------------------------------|
D|---------------------------------------------------------------------------|
A|-5--5--5-5-55----5--5--5-5-55---5\1--1--1-1-11----1--1--1-1-11-------------|
E|---------------------------------------------------------------------------|


  Guitar I
e|-----17------17------17------17------17------17------17------17------------|
B|-15------15------15------15------15------15------15------15----------------|
G|--x14-----x14-----x14-----x14-----x14-----x14-----x14-----x14--------------|
D|---------------------------------------------------------------------------|
A|---------------------------------------------------------------------------|
E|---------------------------------------------------------------------------|
   |                                                                       |
  Guitar II                                                                |
e|-10--10--11--11--13--13--14-14---10--10--11--11--13--13--14-14-------------|
B|-x---x---x---x---x---x---x--x----x---x---x---x---x---x---x--x--------------|
G|-6---6---7---7---9---9---10-10---6---6---7---7---9---9---10-10-------------|
D|---------------------------------------------------------------------------|
A|---------------------------------------------------------------------------|
E|---------------------------------------------------------------------------|
   |                                                                       |
  Guitar III                                                               |
e|---------------------------------------------------------------------------|
B|---------------------------------------------------------------------------|
G|-10------10------10-------10-----9-------9-------9-------9-----------------|
D|-10------10------10-------10-----9-------9-------9-------9-----------------|
A|-8-------8-------8--------8------7-------7-------7-------7-----------------|
E|---------------------------------------------------------------------------|
   |                                                                       |
  Bass                                                                     |
G|---------------------------------------------------------------------------|
D|---------------------------------------------------------------------------|
A|-8--8--8-8-88----8--8--8-8-88---8\7--7--7-7-77----7--7--7-7-77-------------|
E|---------------------------------------------------------------------------|



Outro x2

e|-9-----9-----11-----11-----9-----9-----11-----11---------------------------|
B|---10----10-----10-----10----10----10-----10-----10------------------------|
G|---------------------------------------------------------------------------|
D|---------------------------------------------------------------------------|
A|---------------------------------------------------------------------------|
E|---------------------------------------------------------------------------|


e|-7-----7-----7-----7-----9-----9-----8-----8-------------------------------|
B|----9-----9-----9-----9-----9-----9-----9----------------------------------|
G|---------------------------------------------------------------------------|
D|---------------------------------------------------------------------------|
A|---------------------------------------------------------------------------|
E|---------------------------------------------------------------------------|


| /   slide up
| \   slide down
| x   Mute note





Comments


Popular Misc Soundtrack tabs & chords
Godspell - All For The Best Bass Tabs
A Mighty Wind - Loco Man Chords
A Very Potter Musical - Gotta Get Back To Hogwarts Chords
Gran Torino Theme 1 Chords
Karthik Calling Karthik - Jaane Yeh Kya Hua Chords
Best Two Years - Falling Tabs
Beverly Hills Cop Theme Tabs
Beverly Hills Cop Theme Intro Tabs
Gabrielle Theme Tabs
Indiana Jones Tabs


Song lyrics



↑ Back to top | Tablatures and chords are parodies/interpretations of the original songs. You may use it for private study, scholarship, research or language learning purposes only
© 2014 AZChords.com Contact us | Privacy policy | DMCA | Add/correct tabs | Request tabs | Top 50 tabs