>
 >
Natural Scales And C Arpeggios

Natural Scales And C Arpeggios Guitar Tabs

Misc Scales - Natural Scales And C Arpeggios chords, tabs, tablatures, lyrics

Guitar lessons | Add/correct | Request | Top 50 tabs Artists:  A B C D E F G H I J K L M N O P Q R S T U V W X Y Z 0-9

Natural Scales And C Arpeggios Guitar Tabs – Misc Scales

CD, Sheet music, Poster

Do you like Natural Scales And C Arpeggios? Share with your friends now
Tabs
E||--------------------------|--------------------0--1--|
B||--------------------------|-----------0--1--3--------|
G||--------------------------|-----0--2-----------------|
D||--------------------0--2--|--3-----------------------|
A||-----------0--2--3--------|--------------------------|
E||--0--1--3-----------------|--------------------------|


                                                      
--0-----------------------|--------------------------|
-----3--1--0--------------|--------------------------|
--------------2--0--------|--------------------------|
--------------------3--2--|--0-----------------------|
--------------------------|-----3--2--0--------------|
--------------------------|--------------3--1--0--1--|


                                                      
--------------------------|--------------0--1--3--1--|
--------------------------|-----0--1--3--------------|
-----------------------0--|--2-----------------------|
--------------0--2--3-----|--------------------------|
-----0--2--3--------------|--------------------------|
--3-----------------------|--------------------------|


                                                      
--0-----------------------|--------------------------|
-----3--1--0--------------|--------------------------|
--------------2--0--------|--------------------------|
--------------------3--2--|--0-----------------------|
--------------------------|-----3--2--0--------------|
--------------------------|--------------3--1--0--1--|


                                                                        
--------------------------|---------------------|-----------------0----|
--------------------------|---------------------|------------1----1----|
--------------------------|--2--4--5------------|-------0----0----0----|
-----------------2--3--5--|---------------------|--2----2----2---------|
--------2--3--5-----------|---------------------|--3----3--------------|
--3--5--------------------|---------------------|--3-------------------|


                                                                     
--0-------------------|-----------------3----|--3----0--------------|
--1----1--------------|------------5----5----|--5----1----1---------|
--0----0----0---------|-------5----5----5----|--5----0----0----0----|
-------2----2----2----|--5----5----5---------|------------2----2----|
------------3----3----|--7----7--------------|-----------------3----|
-----------------3----|--8-------------------|----------------------|


                                                 
--------------------8----|--8----3----0---------|
--------------8-----8----|--8----5----1----1----|
--------9-----9-----9----|--9----5----0----0----|
--10----10----10---------|-----------------2----|
--10----10---------------|----------------------|
--12---------------------|----------------------|


                                                      
--------------------------|-----------0--0-----------|
--------------------------|--1-----1--------1-----1--|
-----------------0-----0--|-----0--------------0-----|
--------2-----2-----2-----|--------------------------|
-----3-----3--------------|--------------------------|
--3-----------------------|--------------------------|


                                                      
--------------------------|--------------------------|
--------------------------|--------------------------|
--0-----0-----------------|-----------------5-----5--|
-----2-----2-----2--------|--------5-----5-----5-----|
--------------3-----3-----|-----7-----7--------------|
-----------------------3--|--8-----------------------|


                                                      
-----------3--3-----------|--------------------------|
--5-----5--------5-----5--|--------------------------|
-----5--------------5-----|--5-----5-----------------|
--------------------------|-----5-----5-----5--------|
--------------------------|--------------7-----7-----|
--------------------------|-----------------------8--|


                                                            
--------------------------------|-----------8--8-----------|
--------------------------------|--8-----8--------8-----8--|
----------------------9------9--|-----9--------------9-----|
----------10------10-----10-----|--------------------------|
------10------10----------------|--------------------------|
--12----------------------------|--------------------------|


                                                               
--------------------------------|----------------------------||
--------------------------------|----------------------------||
--9------9----------------------|----------------------------||
-----10-----10------10----------|----------------------------||
----------------10------10------|----------------------------||
----------------------------12--|--8-------------------------||





Comments


Popular Misc Scales tabs & chords
A Altered Scale Bass Tabs
A Harmonic Minor Bass Tabs
G Major Scale Bass Tabs
Modes Scales 3 Octaves 5-string Bass Tabs
4 Scales Tabs
E Japanese Scale Tabs
E Major Scale Tabs
Groovy Blues Riff Tabs
Major Scales Tabs
Sweet Riff Tabs


Song lyrics



↑ Back to top | Tablatures and chords are parodies/interpretations of the original songs. You may use it for private study, scholarship, research or language learning purposes only
© 2014 AZChords.com Contact us | Privacy policy | DMCA | Add/correct tabs | Request tabs | Top 50 tabs