» » »

Misc Scales, A Major Scale Tabs (ver.2)

Artists:  A B C D E F G H I J K L M N O P Q R S T U V W X Y Z # 

A Major Scale Tabs (ver.2)

Misc Scales Tabs
Rating:
0/5 (0 votes)
A Major Scale lessons Tabs too difficult? Try these video lessons and learn fast
                -------------------------------------------------------------------------------
                             SONG NAME - Band Name
-------------------------------------------------------------------------------

Tuning: EADGBE

I couldnt find any tabs with the whole acending and decending scales like this so
I figured I would make it myself.  They are really good for strengthening the fingers
and just learning.  Hope you enjoy them...  I am working on tabbing the Minor scales



C Major Scale First Position (Acending and Decending)

e|------------------------------0-1-3-3-1-0----------------------------------------|
B|------------------------0-1-3-------------3-1-0----------------------------------|
G|--------------------0-2-------------------------2-0------------------------------|
D|--------------0-2-3---------------------------------3-2-0------------------------|
A|--------0-2-3---------------------------------------------3-2-0------------------|
E|--0-1-3---------------------------------------------------------3-1-0------------|

D Major Scale First Position (Acending and Decending)

e|-----------------------------0-2-3-3-2-0------------------------------------------|
B|-------------------------2-3-------------3-2--------------------------------------|
G|-------------------0-2-4---------------------4-2-0--------------------------------|
D|-------------0-2-4---------------------------------4-2-0--------------------------|
A|-------0-2-4---------------------------------------------4-2-0--------------------|
E|-0-2-3---------------------------------------------------------3-2-0--------------|

E Major Scale First Position (Acending and Decending)

e|-----------------------------0-2-4-4-2-0-----------------------------------------|
B|-------------------------2-4-------------4-2-------------------------------------|
G|-------------------1-2-4---------------------4-2-1-------------------------------|
D|-------------1-2-4---------------------------------4-2-1-------------------------|
A|-------0-2-4---------------------------------------------4-2-0-------------------|
E|-0-2-4---------------------------------------------------------4-2-0-------------|

F Major Scale First Position (Acending and Decending)

e|-----------------------------0-1-3-3-1-0-----------------------------------------|
B|-------------------------1-3-------------3-1-------------------------------------|
G|-------------------0-2-3---------------------3-2-0-------------------------------|
D|-------------0-2-3---------------------------------3-2-0-------------------------|
A|-------0-1-3---------------------------------------------3-1-0-------------------|
E|-0-1-3---------------------------------------------------------3-1-0-------------|

G Major Scale First Position (Acending and Decending)

e|-----------------------------0-2-3-3-2-0-----------------------------------------|
B|-----------------------0-1-3-------------3-1-0-----------------------------------|
G|-------------------0-2-------------------------2-0-------------------------------|
D|-------------0-2-4---------------------------------4-2-0-------------------------|
A|-------0-2-3---------------------------------------------3-2-0-------------------|
E|-0-2-3---------------------------------------------------------3-2-0-------------|

A Major Scale First Position (Acending and Decending)

e|-----------------------------0-2-4-4-2-0-----------------------------------------|
B|-----------------------0-2-3-------------3-2-0-----------------------------------|
G|-------------------1-2-------------------------2-1-------------------------------|
D|-------------0-2-4---------------------------------4-2-0-------------------------|
A|-------0-2-4---------------------------------------------4-2-0-------------------|
E|-0-2-4---------------------------------------------------------4-2-0-------------|

B Major Scale First Position (Acending and Decending)

e|-----------------------------0-2-4-4-2-0-----------------------------------------|
B|-----------------------0-2-4-------------4-2-0-----------------------------------|
G|-------------------1-3-------------------------3-1-------------------------------|
D|-------------1-2-4---------------------------------4-2-1-------------------------|
A|-------1-2-4---------------------------------------------4-2-1-------------------|
E|-0-2-4---------------------------------------------------------4-2-0-------------|
            
Submit corrections

comments powered by Disqus
↑ Back to top | Misc Scales Tabs for A Major Scale. Lyrics for acoustic guitar and electric guitar. Tablatures and chords are parodies/interpretations of the original songs. You may use it for private study, scholarship, research or language learning purposes only