» » »

Major And Minor Scale Patterns Bass tabs (ver.1)

Artists:  A B C D E F G H I J K L M N O P Q R S T U V W X Y Z # 

Major And Minor Scale Patterns Bass tabs (ver.1)

Misc Scales
Rating:
5/5 (1 vote)

Hard to play? Try these video lessons and learn fast.
                -----------------------------------------------------------------------------
			     Major And Minor Scale Patterns
-----------------------------------------------------------------------------


Tuning:E,A,D,G

Major Pattern

G|-----------------------------------------------|
D|-----------------4--6--7--6--4-----------------|
A|--------4--5--7-----------------7--5--4--------|
E|--5--7-----------------------------------7--5--|


Minor Pattern

G|-----------------------------------------------|
D|--------------------5--7--5--------------------|
A|-----------5--7--8-----------8--7--5-----------|
E|--5--7--8-----------------------------8--7--5--|

Play either of this anywere on the fret board and you will have your scale. 
For example these are A Major and Minor scales.
Hope It Helps. :)
            
Hard to play? Try these video lessons and learn fast. | Correct




comments powered by Disqus
↑ Back to top | Tablatures and chords are parodies/interpretations of the original songs. You may use it for private study, scholarship, research or language learning purposes only