» » »

Misc Scales, Major And Minor Blues Scales Bass tabs (ver.1)

Artists:  A B C D E F G H I J K L M N O P Q R S T U V W X Y Z # 

Major And Minor Blues Scales Bass tabs (ver.1)

Misc Scales Tabs
Rating:
1/5 (2 votes)
Major And Minor Blues Scales lessons Tabs too difficult? Try these video lessons and learn fast
                
In the key of G double octave scales,whenever there is a * means slide to next note, my 
fingerings below each one.

Minor

G|---------------------5-7-8-10-12-10-8-7-5----------------------|
D|------------3*-5-7-8----------------------8-7-5*-3-------------|
A|------3-5-6----------------------------------------6-5-3-------|
E|3-5-6----------------------------------------------------6-5-3-|

  1 3 4 1 3 4 1  1 3 4 1 3 4  1 3  1  4 3 1 4 3 1  1 4 3 1 4 3 1

Major

G|-------------------4-5-7-9-11-12-11-9-7-5-4--------------------|
D|----------2*-4-5-7--------------------------7-5-4*-2-----------|
A|----2-3-5--------------------------------------------5-3-2-----|
E|3-5--------------------------------------------------------5-3-|

  2 4 1 2 4 1  1 2 4 1 2 4 1  3  4  3 1 4 2 1 4 2 1  1 4 2 1 4 2

Blues

G|-----------------5-6-7-10-12-10-7-6-5------------------|
D|----------3*-5-8----------------------8-5*-3-----------|
A|----3-4-5------------------------------------5-4-3-----|
E|3-6------------------------------------------------6-3-|

  1 4 1 2 3 1  1 4 1 2 3  1  2 1  3 2 1 4 1  1 3 2 1 4 1


In the key of A 2nd position single octave

Minor

G|--------------2---------------|
D|--------2-3-5---5-3-2---------|
A|--2-3-5---------------5-3-2---|
E|5---------------------------5-|

  4 1 2 4 1 2 4 1 4 2 1 4 2 1 4

Major

G|------------1-2-1-------------|
D|--------2-4-------4-2---------|
A|--2-4-5---------------5-4-2---|
E|5---------------------------5-|

  4 1 3 4 1 3 1 2 1 3 1 4 3 1 4

Blues

G|------------2-------------|
D|--------2-5---5-2---------|
A|--3-5-6-----------6-5-3---|
E|5-----------------------5-|

  3 1 3 4 1 4 1 4 1 4 3 1 3
            

comments powered by Disqus
↑ Back to top | Misc Scales Bass for Major And Minor Blues Scales. Lyrics for acoustic guitar and electric guitar. Tablatures and chords are parodies/interpretations of the original songs. You may use it for private study, scholarship, research or language learning purposes only