» » »

Misc Scales, Jazz Scale Tabs (ver.1)

Artists:  A B C D E F G H I J K L M N O P Q R S T U V W X Y Z # 

Jazz Scale Tabs (ver.1)

Misc Scales Tabs
Rating:
3/5 (2 votes)
Jazz Scale lessons Tabs too difficult? Try these video lessons and learn fast
                
Tuning: Standard

This is my first tab and it really wasnt hard but still give feedback please! Thanks!

This is all played straight through (until the end, marked with ~) 
in eighth notes, increasing in speed as you learn it. Read as triplets. 
Its a good warm-up for some Jazz playing.

~ - Hold note as fourth note with slight vibrato
~~ - Hold note as whole note with slight vibrato


e|---------------------------------------------------|
B|--------------------------------------------5---5--|
G|--------------------------------5---5-7-5-7---7----|
D|--------------------5---5-7-5-7---7----------------|
A|--------5---5-7-5-7---7----------------------------|
E|--8-5-8---8----------------------------------------|
    |_|_| |_|_| |_|_| |_|_| |_|_| |_|_| |_|_| |_|_|

          This (5) is still an eighth note
e|--------5--------------------------------------------------|
B|--8-5-8---8-5-8-5---5--------------------------------------|
G|------------------7---7-5-7-5---5--------------------------|
D|------------------------------7---7-5-7-5---5--------------|
A|------------------------------------------7---7-5-7-5---5--|
E|------------------------------------------------------8----|
    |_|_|   |_|_| |_|_| |_|_| |_|_| |_|_| |_|_| |_|_| |_|_|

         This (5) is still an eighth note
e|--------------------------------|
B|--------------------------------|
G|--------------------------------|
D|--------------------------------|
A|--------5-----------------------|
E|--8-5-8---8~--5~~---------------|
    |_|_| 
            

comments powered by Disqus
↑ Back to top | Misc Scales Tabs for Jazz Scale. Lyrics for acoustic guitar and electric guitar. Tablatures and chords are parodies/interpretations of the original songs. You may use it for private study, scholarship, research or language learning purposes only