» » »

G Minor Bass tabs (ver.1)

Artists:  A B C D E F G H I J K L M N O P Q R S T U V W X Y Z # 

G Minor Bass tabs (ver.1)

Misc Scales
Rating:
0/5 (0 votes)

Hard to play? Try these video lessons and learn fast.
                --One Octave--
G|--------------------------|
D|-------------3-5----------|
A|-------3-5-6--------------|
E|-3-5-6--------------------|


--Two Octave--
G|-------5-7-8-10-12--------|
D|-5-7-8--------------------|
A|--------------------------|
E|--------------------------|

Minor scale, just like major but sounds a little sad and major is happy. Have fun!
            
Hard to play? Try these video lessons and learn fast. | Correct




comments powered by Disqus
↑ Back to top | Tablatures and chords are parodies/interpretations of the original songs. You may use it for private study, scholarship, research or language learning purposes only