» » »

Misc Scales, G Major Scales And Licks Tabs (ver.1)

Artists:  A B C D E F G H I J K L M N O P Q R S T U V W X Y Z # 

G Major Scales And Licks Tabs (ver.1)

Misc Scales Tabs
Rating:
5/5 (1 vote)
Hard to play? Try these video lessons and learn fast.
                ------------------------------------------------------------------------------
                             g major scales and licks
------------------------------------------------------------------------------

Tuning:EADGBE
octave change
e|-----------------------------7-8-10-12-14-15------------------------------|
B|---------------------5-7-8-10---------------------------------------------|
G|----------------4-5-7-----------------------------------------------------|
D|-----------4-5-7----------------------------------------------------------|
A|----2-3-5-7---------------------------------------------------------------|
E|-3-5----------------------------------------------------------------------|
standard
e|----------------------2-3-------------------------------------------------|
B|-------------------3-5----------------------------------------------------|
G|--------------2-4-5-------------------------------------------------------|
D|---------2-4-5------------------------------------------------------------|
A|----2-3-5-----------------------------------------------------------------|
E|-3-5----------------------------------------------------------------------|
3 note pentatonic (good for creating sweeps)
e|--------------------------------3-5-8-------------------------------------|
B|-------------------------3-5-8--------------------------------------------|
G|-------------------2-4-7--------------------------------------------------| 
D|-------------2-5-7--------------------------------------------------------| 
A|-------2-5-7--------------------------------------------------------------|
E|-3-5-7--------------------------------------------------------------------|
licks
e|------5---------|--3---------------------------|-------6-8-8b10-6---------|
B|-----5--6b8-----|---6p3------------------------|---8-8-----------8--------|
G|--5b7-----------|-------5p3----3-4-------------|--------------------------|
D|----------------|------------5-----5ph3--------|--------------------------|
A|----------------|-----------------------5-4-3--|--------------------------|
E|----------------|------------------------------|--------------------------|

e|------3-3-6-3~-|----------------------------------------------------------|
B|-----3-3-------|----------------------------------------------------------|
G|-5b7-----------|----------------------------------------------------------|
D|---------------|----------------------------------------------------------|
A|---------------|----------------------------------------------------------|
E|---------------|----------------------------------------------------------|



************************************

| /   slide up
| \   slide down
| h   hammer-on
| p   pull-off
| ~   vibrato
| +   harmonic
| x   Mute note
| b   Bend
| pb  Pre-bend
| br  Bend release
| pbr Pre-bend release
| brb Bend release bend

************************************
            

comments powered by Disqus
↑ Back to top | Misc Scales Tabs for G Major Scales And Licks. Lyrics for acoustic guitar and electric guitar. Tablatures and chords are parodies/interpretations of the original songs. You may use it for private study, scholarship, research or language learning purposes only