>
 >
Exotic Scales

Exotic Scales Guitar Tabs

Misc Scales - Exotic Scales chords, tabs, tablatures, lyrics

Guitar lessons | Add/correct | Request | Top 50 tabs Artists:  A B C D E F G H I J K L M N O P Q R S T U V W X Y Z 0-9

Exotic Scales Guitar Tabs – Misc Scales

CD, Sheet music, Poster

Do you like Exotic Scales? Share with your friends now
Tabs
Some of these are pretty cool, especially if played with a drone:
			
s=sharp
f=flat

Neapolitan Minor:   C Df Ef F G Af B C

	e|------------------
	B|-------------0-1--
	G|---------0-1------
	D|=====1=3==========
	A|=3=4==============
	E|==================

Neapolitan Major:   C Df Ef F G A B C

	e|------------------
	B|-------------0-1--
	G|---------0-2------
	D|=====1=3==========
	A|=3=4==============
	E|==================

Oriental:           C Df E F Gf A Bf C

	e|------------------
	B|---------------1--
	G|-----------2-3----
	D|=====2=3=4========
	A|=3=4==============
	E|==================

Double Harmonic:    C Df E F G Af B C

	e|------------------
	B|-------------0-1--
	G|---------0-1------
	D|=====2=3==========
	A|=3=4==============
	E|==================

Enigmatic:          C Df E Fs Gs As B C

	e|------------------
	B|-------------0-1--
	G|---------1-3------
	D|=====2=4==========
	A|=3=4==============
	E|==================

Hirajoshi:          A B C E F A

	e|------------------
	B|-------------0-1--
	G|-----------2------
	D|=======2=3========
	A|=0=2=3============
	E|==================

Hungarian Minor:    C D Ef Fs G Af B C

	e|------------------
	B|-------------0-1--
	G|---------0-1------
	D|===0=1=4==========
	A|=3================
	E|==================

Hungarian Major:    C Ds E Fs G A Bf C

	e|------------------
	B|---------------1--
	G|---------0-2-3----
	D|===1=2=4==========
	A|=3================
	E|==================

Kumoi:		    E F A B C E

	e|------------------
	B|------------------
	G|---------------2--
	D|===========2=3====
	A|=====0=2=3========
	E|=0=1==============

Iwato: 		    B C E F A B

	e|------------------
	B|-----------0------
	G|---------2--------
	D|=====2=3==========
	A|=2=3==============
	E|==================

Hindu:              C D E F G Af Bf C

	e|------------------
	B|---------------1--
	G|---------0-1-3----
	D|===0=2=3==========
	A|=3================
	E|==================

Spanish 8 Tone:     C Df Ef E F Gf Af Bf C

	e|-------------------
	B|-----------------1-
	G|-------------1-3---
	D|=====1=2=3=4=======
	A|=3=4===============
	E|===================

Pelog:              C Df Ef G Bf C

	e|------------------
	B|-----------1-2-4--
	G|-------0-3--------
	D|=====1============
	A|=3=4==============
	E|==================

Hungarian Gypsy:    C D Ef Fs G Af Bf C

	e|------------------
	B|---------------1--
	G|---------0-1-3----
	D|===0=1=4==========
	A|=3================
	E|==================

Major Phrygian:     C DF E F G Af Bf C

	e|------------------
	B|---------------1--
	G|---------0-1-3----
	D|=====2=3==========
	A|=3=4==============
	E|==================

Major Locrian:      C D E F Gf Af Bf C

	e|------------------
	B|---------------1--
	G|-----------1-3----
	D|===0=2=3=4========
	A|=3================
	E|==================

Lydian Minor:       C D E Fs G Af Bf C

	e|------------------
	B|---------------1--
	G|---------0-1-3----
	D|===0=2=4==========
	A|=3================
	E|==================

Overrtone:          C D E Fs G A Bf C

	e|------------------
	B|---------------1--
	G|---------0-2-3----
	D|===0=2=4==========
	A|=3================
	E|==================

Leading Whole Tone: C D E Fs Gs As B C

	e|------------------
	B|-------------0-1--
	G|---------1-3------
	D|===0=2=4==========
	A|=3================
	E|==================

Arabian: 	    C D E F Gf Af Bf C

	e|------------------
	B|---------------1--
	G|-----------1-3----
	D|===0=2=3=4========
	A|=3================
	E|==================

Balinese: 	    C Df Ef G Af C

	e|------------------
	B|-----------1-2-4--
	G|-------0-1--------
	D|=====1============
	A|=3=4==============
	E|==================

Gypsy: 		    C Df E F G Af B C

	e|------------------
	B|-------------0-1--
	G|---------0-1------
	D|=====2=3==========
	A|=3=4==============
	E|==================

Mohammedan: 	    C D Ef F G Af B C

	e|------------------
	B|-------------0-1--
	G|---------0-1------
	D|===0=1=3==========
	A|=3================
	E|==================

Javanese: 	    C Df Ef F G A Bf C

	e|------------------
	B|---------------1--
	G|---------0-2-3----
	D|=====1=3==========
	A|=3=4==============
	E|==================

Persian: 	    C Df E F gF Af B C

	e|------------------
	B|-------------0-1--
	G|-----------1------
	D|=====2=3=4========
	A|=3=4==============
	E|==================

Algerian: 	    C D Ef Fs G Af B C D Ef F

	e|---------------------1-
	B|-------------0-1-3-4---
	G|---------0-1-----------
	D|===0=1=4===============
	A|=3=====================
	E|=======================

Aeolian: 	    C D Ef F G aF Bf C

	e|------------------
	B|---------------1--
	G|---------0-1-3----
	D|===0=1=3==========
	A|=3================
	E|==================

Byzantine: 	    C Df E F G Af B C
just like Gypsy
	e|------------------
	B|-------------0-1--
	G|---------0-1------
	D|=====2=3==========
	A|=3=4==============
	E|==================

Hawaiian: 	    C D Ef (f grace note) G A B C

	e|-------------------
	B|---------------0-1-
	G|-----------0-2-----
	D|===0=1=(3)=========
	A|=3=================
	E|===================

Jewish: 	    E F Gs A B C D E

	e|------------------
	B|------------------
	G|------------------
	D|=============0=2==
	A|=======0=2=3======
	E|=0=2=4============

Mongolian: 	   C D E G A C

	e|---------------0--
	B|-----------1-3----
	G|-------0-2--------
	D|===0=2============
	A|=3================
	E|==================

Ethiopian: 	   G A Bf C D Ef F G (The B and E can also be natural and
		                                       the F can be sharp)

	e|------------------
	B|------------------
	G|---------------0--
	D|=========0=1=3====
	A|===0=1=3==========
	E|=3================

	e|------------------
	B|------------------
	G|---------------0--
	D|=========0=2=4====
	A|===0=2=3==========
	E|=3================

Spanish: 	   C Df E F G Af Bf C

	e|------------------
	B|---------------1--
	G|---------0-1-3----
	D|=====2=3==========
	A|=3=4==============
	E|==================

Egyptian: 	   C D F G Bf C

	e|---------------1--
	B|-----------1-3----
	G|-------0-3--------
	D|===0=3============
	A|=3================
	E|==================

Japanese: 	   C Df F G Af C

	e|------------------
	B|-----------1------
	G|-------0-1--------
	D|=====3============
	A|=3=4==============
	E|==================

Chinese: 	   F G A C D F

	e|------------------
	B|------------------
	G|-------------0-2--
	D|=========0=3======
	A|=====0=3==========
	E|=2=3==============

                   C E Fs G B C

	e|-------------0-2--
	B|---------0-1------
	G|-------0----------
	D|===2=4============
	A|=3================
	E|==================

so thats it. disappointed? so was I. it is like he made it up.


yoav miller , Isreal


  	    ___  ___     ____    __      __      _____   _____              
  	   /   |/   |   /_  _/  / /     / /     / ____/ / __  /     
          / /| / /| |    / /   / /     / /     / /___  / _   /     
         / / |  / | |  _/ /_  / /___  / /___  /  ___/ / / | |   
  	/_/  |_/  |_| /____/ /_____/ /_____/ /_____/ /_/  |_|





Comments


Popular Misc Scales tabs & chords
4 Scales Tabs
Badass Blues Tabs
Blues Riffs Tabs
C Major Arpeggio Tabs
C Major Scale Patterns Tabs
Cool Scale Tabs
E Minor Pentatonic Scale Tabs
Five Pentatonic Scale Patterns Tabs
Lydian Mode Tabs
Ritsu Scale C Tabs


Song lyrics



↑ Back to top | Tablatures and chords are parodies/interpretations of the original songs. You may use it for private study, scholarship, research or language learning purposes only
© 2014 AZChords.com Contact us | Privacy policy | DMCA | Add/correct tabs | Request tabs | Top 50 tabs