>
 >
Every Major Scale

Every Major Scale Guitar Tabs

Misc Scales - Every Major Scale chords, tabs, tablatures, lyrics

Guitar lessons | Add/correct | Request | Top 50 tabs Artists:  A B C D E F G H I J K L M N O P Q R S T U V W X Y Z 0-9

Every Major Scale Guitar Tabs – Misc Scales

CD, Sheet music, Poster

Do you like Every Major Scale? Share with your friends now
Tabs
E-----------------------------------------------------------------------
B---------------------------------------0--2--4--5----------------------
G------------------------------0--2--3--------------------------2--2----
D------------------------1--2--------------------------------2----------
A---------------0--2--4--------------------------------0--4-------------
E------0--2--4----------------------------------------------------------
       A MAJOR                                                          

                                                                        
E---------------------------------------------0--2--4--6--7-------------
B------------------------------------0--2--4----------------------------
G------------------------------1--3-------------------------------------
D---2-----------------1--2--4--------------------------------------1----
A------4--0-----2--4--------------------------------------------2-------
E-----------------------------------------------------------------------
                B MAJOR                                                 

                                                                        
E---------------------------------------------------0--1--3--5--7--8----
B------------------------------------------0--1--3----------------------
G------0--0--------------------------0--2-------------------------------
D---4--------4--1-----------0--2--3-------------------------------------
A------------------2-----3----------------------------------------------
E-----------------------------------------------------------------------
                         C MAJOR                                        

                                                                        
E---------------------------------------------------------0--2--3--5----
B---------------1--1-----------------------------0--2--3----------------
G------------0--------0--------------------0--2-------------------------
D---------2--------------2--------0--2--4-------------------------------
A------3--------------------3-------------------------------------------
E-----------------------------------------------------------------------
                                  D MAJOR                               

                                                                        
E---7--9--10------------------------------------------------------------
B-------------------------3--3------------------------------------------
G----------------------2--------2---------------------------------------
D----------------0--4--------------4--0-----------------------1--2------
A----------------------------------------------------0--2--4------------
E-------------------------------------------0--2--4---------------------
                                            E MAJOR                     

                                                                        
E---------------------0-------------------------------------------------
B------------0--2--4----------------------------------------------------
G------1--2-------------------------------------------------------------
D---4--------------------------------2--2-------------------------------
A---------------------------------2--------2-----------------0--1--3----
E---------------------------0--4--------------4--0-----1--3-------------
                                                       F MAJOR          

                                                                        
E---------------------------0--1----------------------------------------
B---------------------1--3----------------------------------------------
G------------0--2--4----------------------------------------------------
D---0--2--3-----------------------------------3--3----------------------
A---------------------------------------0--3--------3--0----------------
E------------------------------------1--------------------1-------------
                                                                        

                                                                        
E---------------------------------------0--2--3-------------------------
B------------------------------0--1--3----------------------------------
G------------------------0--2--------------------------------0--0-------
D---------------0--2--4-----------------------------------0--------0----
A------0--2--3-----------------------------------------2----------------
E---3-----------------------------------------------3-------------------
    G MAJOR                                                             

                                                                        
E---------------------------------------1--2--4--6--8--9----------------
B------------------------------1--2--4----------------------------------
G------------------------1--3--------------------------------------1----
D---------------1--3--4-----------------------------------------3-------
A---2--------4-----------------------------------------------4----------
E------3----------------------------------------------------------------
             C# MAJOR                                                   

                                                                        
E------------------------------------------------------------1--2-------
B---2--2--------------------------------------------0--2--4-------------
G---------1-----------------------------------1--3----------------------
D------------3-----------------------1--3--4----------------------------
A---------------4-----------1--2--4-------------------------------------
E---------------------2--4----------------------------------------------
                      F# MAJOR                                          

                                                                        
E------------------------------------------------------------------1----
B---------------------------------------------------------1--2--4-------
G------------------------------------------------0--1--3----------------
D------------4--4--------------------------1--3-------------------------
A------1--4--------4--1-----------1--3--4-------------------------------
E---2--------------------2-----4----------------------------------------
                               Ab MAJOR                                 

                                                                        
E---3--4----------------------------------------------------------------
B---------------------------------------------------------------1--3----
G---------------------1--1-----------------------------0--2--3----------
D------------------1--------1-----------------0--1--3-------------------
A---------------3--------------3--------1--3----------------------------
E------------4--------------------4-------------------------------------
                                        Bb MAJOR                        

                                                                        
E------1--3--5--6-------------------------------------------------------
B---4-------------------------------------------------------------------
G------------------------------0--0-----------------------------1--3----
D------------------------0--3--------3--0--------------1--2--4----------
A---------------------1--------------------1-----2--4-------------------
E-----------------------------------------------------------------------
                                                 Cb MAJOR               

                                                                        
E------------0--2--4--6--7----------------------------------------------
B---0--2--4-------------------------------------------------------------
G---------------------------------------0--0----------------------------
D---------------------------------1--4--------4--1-----------1--3--4----
A------------------------------2--------------------2-----4-------------
E-----------------------------------------------------------------------
                                                          Db MAJOR      

                                                                        
E------------------1--2--4--6--8--9-------------------------------------
B---------1--2--4-------------------------------------------------------
G---1--3-----------------------------------------0--0-------------------
D------------------------------------------0--3--------3--0-------------
A---------------------------------------1--------------------1----------
E-----------------------------------------------------------------------
                                                                        

                                                                        
E---------------------------1--3--4--6--8--10--11-----------------------
B------------------1--3--4-------------------------------------4--4-----
G---------0--1--3----------------------------------------0--3-----------
D---1--3----------------------------------------------1-----------------
A-----------------------------------------------------------------------
E-----------------------------------------------------------------------
    Eb MAJOR                                                            

                                                                        
E------------------------------------------------------1--2-------------
B---------------------------------------------0--2--4-------------------
G---3--0--------------------------------1--3----------------------------
D---------1--------------------1--3--4----------------------------------
A---------------------1--2--4--------------------------------------1----
E---------------2--4--------------------------------------------2-------
                Gb MAJOR                                                

                                                                        
E-----------------------------------------------------------------------
B-----------------------------------------------------------------------
G-----------------------------------------------------------------------
D------4--4-------------------------------------------------------------
A---4--------4--1-------------------------------------------------------
E------------------2----------------------------------------------------





Comments


Popular Misc Scales tabs & chords
A Major Scale Bass Tabs
B Flat Scale Tabs
Boogie Twelve Bar Blues Tabs
Cool Blues Run Tabs
Good Tabs
Hungarian Major Scale Tabs
Japan Scale Tabs
Major Scales 3 Tabs
Metal Scale Tabs
Sweep Excersice Tabs


Song lyrics



↑ Back to top | Tablatures and chords are parodies/interpretations of the original songs. You may use it for private study, scholarship, research or language learning purposes only
© 2014 AZChords.com Contact us | Privacy policy | DMCA | Add/correct tabs | Request tabs | Top 50 tabs