» » »

E Mongolian Tabs (ver.1)

Artists:  A B C D E F G H I J K L M N O P Q R S T U V W X Y Z # 

E Mongolian Tabs (ver.1)

Misc Scales
Rating:
2/5 (1 vote)

Hard to play? Try these video lessons and learn fast.
                ----------------------------------------------------------------------------
                          Mongolian scale - Misc sclaes
----------------------------------------------------------------------------

Tuning:Standard

This scale includes the notes:E, F#, G#, B, and C#.

e|---------------0-2-|---------------------2-4-|---------------------4-7-|
B|-----------0-2-----|-----------------2-5-----|-----------------5-7-----|
G|---------1---------|-------------1-4---------|-------------4-6---------|
D|-------2-----------|---------2-4-------------|---------4-6-------------|
A|-----2-------------|-----2-4-----------------|-----4-7-----------------|
E|-0-2---------------|-2-4---------------------|-4-7---------------------|

e|--------------------7-9-|--------------------------9-12-|
B|-----------------7-9----|---------------------9-12------|
G|-------------6-9--------|----------------9-11-----------|
D|---------6-9------------|-----------9-11----------------|
A|-----7-9----------------|------9-11---------------------|
E|-7-9--------------------|-9-12--------------------------|
            
Hard to play? Try these video lessons and learn fast. | Correct




comments powered by Disqus
↑ Back to top | Tablatures and chords are parodies/interpretations of the original songs. You may use it for private study, scholarship, research or language learning purposes only