» » »

E Minor Rock Lick Scale Tabs (ver.1)

Artists:  A B C D E F G H I J K L M N O P Q R S T U V W X Y Z # 

E Minor Rock Lick Scale Tabs (ver.1)

Misc Scales
Rating:
5/5 (1 vote)

Hard to play? Try these video lessons and learn fast.
                Hey guys , these are just a few of my favourite Pentatonic licks that i like to use   , Enjoy!! :)

Tuning:Standard (or half a step down)

E minor pentatonic Lick

e|----------------------------------------------------------------------------|
B|--12h15p12------12h15p12------12h15p12------12h15p12------12h15p12--15b17---|
G|-----------14b16---------14b16--------14b16----------14b16------------------|
D|----------------------------------------------------------------------------|
A|----------------------------------------------------------------------------|
E|----------------------------------------------------------------------------|

E minor blues sounding lick

e|-----------------------------------=----------------------------------------|
B|----=--12h15p12-------12h15p12----------12h15p12---------12h15p12------12---|
G|-=-15------------15--------------15-----------------15-------------15-------|
D|----------------------------------------------------------------------------|
A|----------------------------------------------------------------------------|
E|----------------------------------------------------------------------------|

 another E minor Pentatonic lick

e|-------------------------------------------=--------------------------------|
B|-----14-----12h14p12--------------------------------------------------------|
G|-----14b15--12h14p12-------------12-----------------------------------------|
D|----------------------14--12--14-----14-------------------------------------|
A|-----------------------------------------=----------------------------------|
E|------------------------------------=---------------------------------------|

Lick 4

e|----------------------------------------------------------------------------|
B|------------------------------------------------------12-12-----------------|
G|------------------------------12-12--------14-14-12h14--------14p12---------|
D|----12-12---------14-14-12h14-----14p12-------------------------------------|
A|----------14p12-------------------------------------------------------------|
E|----------------------------------------------------------------------------|

e|-----------------12---------------------------------------------------------|
B|--15-15-12h15--------15p12---15b17v-----------------------------------------|
G|----------------------------------------------------------------------------|
D|----------------------------------------------------------------------------|
A|----------------------------------------------------------------------------|
E|----------------------------------------------------------------------------|
            
Hard to play? Try these video lessons and learn fast. | Correct




comments powered by Disqus
↑ Back to top | Tablatures and chords are parodies/interpretations of the original songs. You may use it for private study, scholarship, research or language learning purposes only