» » »

E Javanese Tabs (ver.1)

Artists:  A B C D E F G H I J K L M N O P Q R S T U V W X Y Z # 

E Javanese Tabs (ver.1)

Misc Scales
Rating:
0/5 (0 votes)

Hard to play? Try these video lessons and learn fast.
                ----------------------------------------------------------------------------
                             Javanese scale - Misc sclaes
----------------------------------------------------------------------------

Tuning:Standard

This scale includes the notes E, F, G A, B, C# and D.

e|---------------------------0-1-3-|---------------------------3-5--|
B|---------------------0-2-3-------|---------------------2-3-5------|
G|-----------------0-2-------------|-----------------2-4------------|
D|-----------0-2-3-----------------|-----------2-3-5----------------|
A|-------0-2-----------------------|-----2-4-5----------------------|
E|-0-1-3---------------------------|-3-5----------------------------|

e|-----------------------------5-7-|---------------------------------7-9-10|
B|-----------------------5-6-8-----|----------------------------8-10-------|
G|-----------------4-6-7-----------|-------------------6-7-9-10------------|
D|-------------5-7-----------------|---------------7-9---------------------|
A|-----4-5-7-8---------------------|--------7-8-10-------------------------|
E|-5-7-----------------------------|-7-9-10--------------------------------|

e|-----------------------------------------9-10-12-13--|
B|-----------------------------------10-12-------------|
G|---------------------------9-10-12-------------------|
D|-------------------9-11-12---------------------------|
A|------------10-12------------------------------------|
E|-9-10-12-13------------------------------------------|
            
Hard to play? Try these video lessons and learn fast. | Correct




comments powered by Disqus
↑ Back to top | Tablatures and chords are parodies/interpretations of the original songs. You may use it for private study, scholarship, research or language learning purposes only