» » »

Misc Scales, E Gypsy Scale Tabs (ver.1)

Artists:  A B C D E F G H I J K L M N O P Q R S T U V W X Y Z # 

E Gypsy Scale Tabs (ver.1)

Misc Scales Tabs
 Rating:
4.3/5 (6 votes)
E Gypsy Scale lessons Tabs too difficult? Try these video lessons and learn fast
                ----------------------------------------------------------------------------
----------------------------------------------------------------------------

Tuning:Eadgbe

Yes this is a real scale. This scale includes the notes E,F,G#,A,B,C# and D.
It is called gypsy scale because of the sound and its use in hungarian music. It 
a harmonic minor scale but this one has an agmented 4th

e|---------------------0-1--|-------------------------4-5------|
B|-----------------0-2------|-------------------2-3-5----------|
G|-------------1-2----------|---------------2-4----------------|
D|---------0-2--------------|-----------2-3--------------------|
A|-----0-2------------------|-----2-4-5------------------------|
E|-0-1----------------------|-4-5------------------------------|

e|--------------------------7-9-10-|--------------------------------9-10-12|
B|--------------------6-9-10-------|-------------------------9-10-12-------|
G|---------------6-7-9-------------|---------------------9-10--------------|
D|----------6-7-9------------------|--------------9-11-12------------------|
A|-------7-8-----------------------|---------11-12-------------------------|
E|-7-9-10--------------------------|-10-12-13------------------------------|
            
Submit corrections

comments powered by Disqus
↑ Back to top | Misc Scales Tabs for E Gypsy Scale. Lyrics for acoustic guitar and electric guitar. Tablatures and chords are parodies/interpretations of the original songs. You may use it for private study, scholarship, research or language learning purposes only