» » »

D Minor Scale Tabs (ver.1)

Artists:  A B C D E F G H I J K L M N O P Q R S T U V W X Y Z # 

D Minor Scale Tabs (ver.1)

Misc Scales
Rating:
5/5 (8 votes)

Hard to play? Try these video lessons and learn fast.
                This scale is used in alot of metal usely in drop D. but im going to do it in standered 
we dont complicate anything.


Tuning:Eadgbe

This is th main box shape of D minor
e|------------------------------------------10-12-13-------------------|
B|---------------------------------10-11-13----------------------------|
G|-------------------------9-10-12-------------------------------------|
D|-------------------10-12---------------------------------------------|
A|----------10-12-13---------------------------------------------------|
E|-10-12-13------------------------------------------------------------|

I am going to carry on the rest of the shape from the bottom of the guitar now.

e|------------------------------0-1-3-|-----------------------------3-5-6--|
B|--------------------------1-3-------|-----------------------3-5-6--------|
G|--------------------0-2-3-----------|-----------------2-3-5--------------|
D|--------------0-2-3-----------------|-----------2-3-5--------------------|
A|--------0-1-3-----------------------|-------3-5--------------------------|
E|--0-1-3-----------------------------|-3-5-6------------------------------|

e|---------------------------5-6-8-|-----------------------------------8-10|
B|---------------------5-6-8-------|---------------------------8-10-11-----|
G|-----------------5-7-------------|--------------------7-9-10-------------|
D|-----------5-7-8-----------------|-------------7-8-10--------------------|
A|-----5-7-8-----------------------|------7-8-10---------------------------|
E|-6-8-----------------------------|-8-10----------------------------------|
            
Hard to play? Try these video lessons and learn fast. | Correct




comments powered by Disqus
↑ Back to top | Tablatures and chords are parodies/interpretations of the original songs. You may use it for private study, scholarship, research or language learning purposes only