» » »

Misc Scales, D Major Scale Tabs (ver.2)

Artists:  A B C D E F G H I J K L M N O P Q R S T U V W X Y Z # 

D Major Scale Tabs (ver.2)

Misc Scales Tabs
Rating:
0/5 (0 votes)
Hard to play? Try these video lessons and learn fast.
                e|-----------------------------0-2-3-|-7-5---------------------|
B|-----------------------0-2-3-------|-----8-7-----------------|
G|-------------------0-2-------------|---------7-6-------------|
D|-------------0-2-4-----------------|-------------7-5---------|
A|-------0-2-4-----------------------|-----------------7-5-----|
E|-0-2-3-----------------------------|---------------------7-5-|

e|---------------------------------------9-10-12-|
B|---------------------------------10-12---------|
G|-------------------------9-11-12---------------|
D|-----------------9-11-12-----------------------|
A|---------9-10-12-------------------------------|
E|-9-10-12---------------------------------------|

e|-17-15-14-------------------------------------------|
B|----------17-15-14----------------------------------|
G|-------------------16-14----------------------------|
D|-------------------------17-16-14-------------------|
A|----------------------------------17-16-14----------|
E|-------------------------------------------17-15-14-|

e|----------------------------------------19-21-22-|
B|-------------------------------19-20-22----------|
G|-------------------------19-21-------------------|
D|-------------------19-21-------------------------|
A|----------19-21-22-------------------------------|
E|-19-21-22----------------------------------------|
            

comments powered by Disqus
↑ Back to top | Misc Scales Tabs for D Major Scale. Lyrics for acoustic guitar and electric guitar. Tablatures and chords are parodies/interpretations of the original songs. You may use it for private study, scholarship, research or language learning purposes only