» » »

Cool Blues Run Tabs (ver.1)

Artists:  A B C D E F G H I J K L M N O P Q R S T U V W X Y Z # 

Cool Blues Run Tabs (ver.1)

Misc Scales
Rating:
0/5 (0 votes)

Hard to play? Try these video lessons and learn fast.
                a pretty cool extended blues run
-------------------------------------0--3--5--6--7--
-------------------------------0--3-----------------
----------------------0--2--3-----------------------
----------------0--2--------------------------------
-------0--1--2--------------------------------------
-0--3-----------------------------------------------

-7--6--5--3--0---------------------------------------
----------------3--0---------------------------------
----------------------3--2--0-------------------------
-------------------------------2--0-------------------
------------------------------------2--1--0-----------
---------------------------------------------3b--3\0--

i find it sounds cool to mute some notes and use a fuzz and 
a wah. a good run to mess about with. have fun
-jesta_187
            
Hard to play? Try these video lessons and learn fast. | Correct




comments powered by Disqus
↑ Back to top | Tablatures and chords are parodies/interpretations of the original songs. You may use it for private study, scholarship, research or language learning purposes only