» » »

C Major Scale Patterns Tabs (ver.1)

Artists:  A B C D E F G H I J K L M N O P Q R S T U V W X Y Z # 

C Major Scale Patterns Tabs (ver.1)

Misc Scales
Rating:
0/5 (0 votes)

Tabs too difficult? Try these video lessons and learn fast.
                C MAJOR SCALES

C 0:      C 1:        C 2:      C 3:      C 4:        C 5:
|-0-1-3-| |-0-1-3-5-| |-1-3-5-| |-3-5-7-| |-3-5-7-8-| |-5-7-8-|
|-0-1-3-| |-0-1-3---| |-1-3-5-| |-3-5-6-| |-3-5-6---| |-5-6-8-|
|-0-2---| |-0-2-----| |-2-4---| |-2-4-5-| |-4-5-----| |-4-5-7-|
|-0-2-3-| |-0-2-3---| |-2-3-5-| |-2-3-5-| |-3-5-7---| |-5-7---|
|-0-2-3-| |-0-2-3---| |-2-3-5-| |-2-3-5-| |-3-5-7---| |-5-7-8-|
|-0-1-3-| |-1-3-----| |-3-5---| |-3-5---| |-5-7-----| |-5-7-8-|

C 6:         C 7:       C 8:          C 9:           C 10:
|-5-7-8-10-| |-7-8-10-| |-7-8-10-12-| |-8-10-12-13-| |-10-12-13-|
|-5-6-8----| |-6-8-10-| |-8-10------| |-8-10-12----| |-10-12-13-|
|-5-7------| |-7-9----| |-7-9-10----| |-9-10-------| |-9-10-12--|
|-5-7-9----| |-7-9-10-| |-7-9-10----| |-9-10-12----| |-9-10-12--|
|-5-7-8----| |-7-8-10-| |-7-8-10----| |-8-10-12----| |-10-12----|
|-7-8------| |-7-8-10-| |-8-10------| |-10-12------| |-10-12-13-|

C 11:           C 12:        C 13:           C 14:        C 15:
|-10-12-13-15-| |-12-13-15-| |-12-13-15-17-| |-13-15-17-| |-15-17-19-|
|-10-12-13----| |-12-13-15-| |-12-13-15----| |-13-15-17-| |-15-17-18-|
|-10-12-------| |-12-14----| |-12-14-------| |-14-16----| |-14-16-17-|
|-10-12-14----| |-12-14-15-| |-12-14-15----| |-14-15-17-| |-14-15-17-|
|-10-12-14----| |-12-14-15-| |-12-14-15----| |-14-15-17-| |-14-15-17-|
|-12-13-------| |-12-13-15-| |-13-15-------| |-15-17----| |-15-17----|

C 16:           C 17:        C 18:           C 19:        C 20:
|-15-17-19-20-| |-17-19-20-| |-17-19-20-22-| |-19-20-22-| |-19-20-22-|
|-15-17-18----| |-17-18-20-| |-17-18-20----| |-18-20-22-| |-20-22----|
|-16-17-------| |-16-17-19-| |-17-19-------| |-19-21----| |-19-21-22-|
|-15-17-19----| |-17-19----| |-17-19-21----| |-19-21-22-| |-19-21-22-|
|-15-17-19----| |-17-19-20-| |-17-19-20----| |-19-20-22-| |-19-20-22-|
|-17-19-------| |-17-19-20-| |-19-20-------| |-19-20-22-| |-20-22----|
            
Tabs too difficult? Try these video lessons and learn fast.




comments powered by Disqus
↑ Back to top | Tablatures and chords are parodies/interpretations of the original songs. You may use it for private study, scholarship, research or language learning purposes only